#1
aiight, I just picked up my electric for the first time in a good long while and out comes this riff that I cannot name!!!!

E-----------------------------------------------------|
B-----------------------------------------------------|
G---2-----------------------5------------------------|
D---2--------2-------------5------------------------|
A---0------- 2-------------3------------------------|
E-------3b--0-----0-0-0---------------------------|

E-----------------------------------------------------|
B-----------------------------------------------------|
G---2------------------------------------------------|
D---2--------2---------------5----5-5----5---5-5---|
A---0------- 2---------------5----5-5----5---5-5---|
E-------3b--0-----0-0-0---3----3-3----7---7-7---|


I've never written a tab before hence the wonky nature of that one, and the way the song is actually played is probably for from what i've tabbed here, but it sounds like somethin i've heard, probably older metal maybe? I dono :S

NAME THAT RIFF!!!
#3
play it on ya geeetarr!!


to me it sounds like NWOBHM, i.e Diamond Head or Sabbath or Saxon or somethin ?
#4
oh and if it turns out that it's not actually from anything then it's MINE!! and I hereby copywrite it and claim all ownership!!