#1
Just as the title says, I need the bass tab for Run, Run, Rudolph by Chuck Berry.

Thanks in advance.
#3
well it ain't rocket science but it kind of goes like this:

G--------------------------------------------------------------------
D-------5----------3-3-3-3----------------5-5-5-5---------------
A----3----3-333------------3-3-3-3-(5)------------3-3-3-3----
E---------------------------------------------------------------------


G---------------------------------------------------------------------------
D---------3-3-------------3-3-3-3----------------5-5-5-5---------------
A----3-3-------3-3-3-3------------3-3-3-3-(5)------------3-3-3-3----
E----------------------------------------------------------------------------

I forgot how good this song is I must get our band to have a go, with Xmas coming up