#1
I'm trying this crazy arpeggio out...And the first thing I notice, is that if my fingering positions are right...I have short fingers.

Well here it is.


--------------------12-15-19-24-19-15-12-------------
------------------12---------------------------12----------
---------------12---------------------------------12-------
------------14--------------------------------------14-----
--------14---------------------------------------------14--
-12-15--------------------------------------------------15

[There is tapping in it as well]

Let me know what the correct positionings are, if you have time
Gear

Ibanez RG350DX Electric Guitar With DiMarzio Tone Zone
Academy Electric Guitar
BeaverCreek Acoustic Guitar

Roland Micro Cube Amp
Academy 15W Amp
Peavey Vypyr 30
Peavey Sanpera Footswitch I
#2
These are the fingers I would use.

--------------------1-4-T1-T3-T1-4-1-------------
------------------1-------------------------1----------
---------------1-------------------------------1-------
------------3------------------------------------ 3-----
--------3-------------------------------------------3--
---1-4------------------------------------------------3

T = tapped w/ right hand

You could also slide the the tap on the 19th to the 24th then back to the 19th for a cool effect.
#3

-------------------12-15-19-24-19-15-12----------------
----------------12----------------------12-------------
-------------12----------------------------12----------
----------14----------------------------------14-------
-------14----------------------------------------14----
-12-15----------------------------------------------15-

 1  4  3  3  1  1  1  4  1R 4R 1R 4  1  1  1  3  1  4


The "R" stands for "right hand" fingers for the tapping (supposing you're right handed).
Quote by dudetheman
So what? I wasted like 5 minutes watching DaddyTwoFoot's avatar.


Metalheads are the worst thing that ever happened to metal.