#1
This has always been rough. I have to do hammer-ons/pull-offs cuz I cant quite do a clean alternate pick in my solos. Please help!!!
#2
use metronome
If you can read this... you can read!



    Quote by Fat Lard
    I like semen, so what?
    #3
    Practice thunderstruck using strict altenate picking and a metronome, starting off very slowly, and NO DISTORTION OR EFFECTS CLEAN ONLY, or even acoustically. Then try do three note triplet runs, for example with two notes on the high e and one on the B string, again using strict alternate picking, Should help tidy it up for you, always remeber slow, clea and accurate, then build up.
    #5
    This is an exercise my teacher gave me, practice it with a metronome.

    
    e |-------------------------------------------|
    B |-------------------------------------------|
    G |-4-5-7-5-4---5-4-----4---------------------|
    D |-----------7-----7-5---7-5-4-7-5-4---------|
    A |-----------------------------------7-------|
    E |-------------------------------------------|
        & a 1 e & a 2 e & a 3 e & a 4 e & a
    
            1       2       3       4
    
    e |-------------------------------------------|
    B |-------------------------------------------|
    G |-2-4-5-4-2---4-2-----2---------------------|
    D |-----------5-----5-4---5-4-2-5-4-2---------|
    A |-----------------------------------5-------|
    E |-------------------------------------------| 
        & a 1 e & a 2 e & a 3 e & a 4 e & a
    
            1       2       3       4
    
    e |-------------------------------------------|
    B |-------------------------------------------|
    G |-0-2-4-2-0---2-0-----0---------------------|
    D |-----------4-----4-2---4-2-0-4-2-0---------|
    A |-----------------------------------3-------|
    E |-------------------------------------------|
        & a 1 e & a 2 e & a 3 e & a 4 e & a
    
            1       2       3       4
    
    e |-7-8-10-8-7----8-7------7------------------|
    B |------------10-----10-8---10-8-7-10-8-7----|
    G |----------------------------------------9--|
    D |-------------------------------------------|
    A |-------------------------------------------|
    E |-------------------------------------------|
        & a 1  e & a  2 e &  a 3 e  & a 4  e & a
    
            1         2        3        4
    
    e |-5-7-8-7-5---7-5-----5---------------------|
    B |-----------8-----8-7---8-7-5-8-7-5---------|
    G |-----------------------------------7-------|
    D |-------------------------------------------|
    A |-------------------------------------------|
    E |-------------------------------------------|
        & a 1 e & a 2 e & a 3 e & a 4 e & a
            
            1       2       3       4
    
    e |-3-5-7-5-3---5-3-----3---------------------|
    B |-----------7-----7-5---7-5-3-7-5-3---------|
    G |-----------------------------------5-------|
    D |-------------------------------------------|
    A |-------------------------------------------|
    E |-------------------------------------------|
        & a 1 e & a 2 e & a 3 e & a 4 e & a
    
            1       2       3       4
    
    repeat
    

    Tap your foot to the beat as well it helps

    Make sure to wait out the bar in between each run as well; it's just as much about when your not playing as when you are
    #6
    Learn medusa[solo] And the lick in for stevie wonders eyes only. both bring me the horizon . it will help abunch
    #8
    Quote by xKnifekillerx
    Learn medusa[solo] And the lick in for stevie wonders eyes only. both bring me the horizon . it will help abunch

    Learning songs is useless if you aren't doing it right, which is precisely what the threadstarter's problem is.
    Quote by dudetheman
    So what? I wasted like 5 minutes watching DaddyTwoFoot's avatar.


    Metalheads are the worst thing that ever happened to metal.