#2
standard with capo on 6th fret
intro:
e|---------------------------------------------------|
B|----3-----3-3-----3-3------0-0-----------------|
G|----0-----2-2-----0-0------0-0-----------------|
D|----2-----0-0-----0-0------2-2-----------------|
A|----3----------------------------------------------|
E|--------------------3-3------0-0-----------------|

rest of the song:
e|---------------------------------------------------------|
B|--0-------3-----3-3-----3-3------0-0-----------------|
G|--0-------0-----2-2-----0-0------0-0-----------------|
D|--0-------2-----0-0-----0-0------2-2-----------------|
A|------3--------------------------------------------------|
E|---------------------------3-3------0-0-----------------|
#4
Quote by crmrz
standard with capo on 6th fret
intro:
e|---------------------------------------------------|
B|----3-----3-3-----3-3------0-0-----------------|
G|----0-----2-2-----0-0------0-0-----------------|
D|----2-----0-0-----0-0------2-2-----------------|
A|----3----------------------------------------------|
E|--------------------3-3------0-0-----------------|

rest of the song:
e|---------------------------------------------------------|
B|--0-------3-----3-3-----3-3------0-0-----------------|
G|--0-------0-----2-2-----0-0------0-0-----------------|
D|--0-------2-----0-0-----0-0------2-2-----------------|
A|------3--------------------------------------------------|
E|---------------------------3-3------0-0-----------------|



THANK YOU!