#1
Hey,

I've been trying to tab this song but I'm a little retarded when it comes to playing by ear. I believe it is Capo'd on the fifth fret, just need the chords.

I'll even pay you via PayPal if you feel you need compensation, I just need this song tabbed, its an old favorite.

You guys rock ,thanks.

http://www.youtube.com/watch?v=_khtX9bWU4o
Last edited by Makakoa at Oct 28, 2009,
#2
it wont let anyone in to view the file. it says you need permission or the ability to log in. whats the song name i"ll look it up on lime wire and tab it out for ya real quick
Im gonna pistol whip the next guy that says shenanigans !!!!
#3
Access Denied to link, try again
Any spelling or grammatical errors written above are because of my inferior brain to yours. Good job, you won life.
#6
Ah, damn it, that one doesn't work either. If I can email an MP3 I'll do it, sorry guys, making this difficult.
#8
I tabbed it with no strumming, so you can see
clearly the changes between chords...

standard with capo on 4th fret

e|---2p0--------0-----------------|
B|----------------3-----------------|
G|-----------2---------2-----------| (4)
D|---0--------------0---------------|
A|-----------------------------------|
E|-----------------------------------|


intro:

e|---2--0-----5---------3----0---3-0-----------|
B|---3--3-----7---------5----5---5-5-----------|
G|---2--2-----6---------4----4---4-4-----------|
D|---0--0-----0---------0----0---0-0-----------|
A|--------------------------------------------------|

e|---2--0-----5--------3-----0--0-0------|
B|---3--3-----7--------5-----2--0-2------|
G|---2--2-----6--------4-----2--2-2------|
D|---0--0-----0--------0-----2--2-2------|
A|------------------------------0--0-0-----|
E|--------------------------------------------|

Verse:

e|---2----0-2---0--2----------0-----0--0----0---0-----------------|
B|---3----3-3---3--3----------2-----0--2----0---2-----------------|
G|---2----2-2---2--2----------2-----2--2----2---2-----------------| (2x)
D|---0----0-0---0--0----------2-----2--2----2---2-----------------|
A|-------------------------------0-----0--0----0---0------------------|
E|----------------------------------------------------------------------|

e|---2----0-----3-----------3------3--------2----0----3---------3------0-----0--0------------|
B|---3----3-----3-----------3------3--------3----3----3---------3------2-----0--2------------|
G|---2----2-----0-----------0------0--------2----2----0---------0------2-----2--2------------|
D|---0----0-----2-----------0------0--------0----0----2---------0------2-----2--2------------|
A|---------------3-----------2-------2-------------------3---------2------0-----0--0-----------|
E|------------------------------------3------------------------------------------------------------|

repeat verse and then..

e|---0--------3--------0--------3---------------------|
B|---0--------3--------0--------3---------------------|
G|---0--------0--------0--------0---------------------|
D|---2--------0--------2--------0---------------------|
A|---2--------2--------2--------2---------------------|
E|---0--------3--------0--------3---------------------|
Last edited by crmrz at Oct 29, 2009,
#9
Quote by Opethfan1
it wont let anyone in to view the file. it says you need permission or the ability to log in. whats the song name i"ll look it up on lime wire and tab it out for ya real quick


hey whats that restaurant that you used to eat at all the time?
#10
Bump, can anyone tab the rest of this song? A huge thanks to CRMRZ for the intro!! I really appreciate your guys help!

And I don't need the lead guitar solo in the middle of the song tabbed, just the chords.
Last edited by Makakoa at Oct 28, 2009,