#1
A friend needs this for some work in college, he couldn't find it and nor can I. Is there anywhere I can find it or am I going to have to tab it out by ear for him?
Ta.

Verse & Chorus?
ᶌῖᶌα ɭα ɌεᶌσɭƲʈιʘϰ
Last edited by Vauxite at Oct 28, 2009,
#5
I watched a video of some guy playing the vocal melody on guitar a while back . I'm looking on YouTube at the moment, I'll post it if I find it.
R.I.P Jon Lord, Rory Gallagher and Jimi!
#6
-|----------------------------------------------------------------------------
-|----------------------------------------------------------------------------
-|---2-4--4----4-2-----------2-4--4---4-2-------------------------------------
-|-4---------------4--4----4--------------4--5-4-2----------------------------
-|--------------------------------------------------5-4-5---------------------
-|----------------------------------------------------------------------------
   halelu-jah  halelu-jah  halelu-jah halelu-u-u-u--u-jah          


Actually, that sounds nothing like the Leonard Cohen version. This is how I remember it from Shrek.
#7
Quote by sashki
-|----------------------------------------------------------------------------
-|----------------------------------------------------------------------------
-|---2-4--4----4-2-----------2-4--4---4-2-------------------------------------
-|-4---------------4--4----4--------------4--5-4-2----------------------------
-|--------------------------------------------------5-4-5---------------------
-|----------------------------------------------------------------------------
halelu-jah halelu-jah halelu-jah halelu-u-u-u--u-jah


Actually, that sounds nothing like the Leonard Cohen version. This is how I remember it from Shrek.


Good enough for me to work with, thanks a bunch.
ᶌῖᶌα ɭα ɌεᶌσɭƲʈιʘϰ