#1
Has anyone got or can make tabs or any kinda notes watever, for Strongest person I know, from the streets. Its a preety simple tune but I cant make it out, and I wanna play it for my gfriends bday soon :]

All help much appreciated.

http://www.youtube.com/watch?v=VwJW-62VUVQ
#2
nope... lol but if u can also tab Cry of the banshee by Brocas Helm, i did half of it by ear but it sounds sketchy. If you can post atab that'l be great.
#3
intro:
e|---------------------------------------------------------------|
B|-----------------1-------------------1----------1------------|
G|---------0---------0-------------0-----------0---------------|
D|-----2------2-----------------3-----------3------------------|
A|---3-------------------3----------------3---------------------|
E|---------------------------------------------------------------|

e|--------------------------------------------0--------------------|
B|--------------------1-------------------1-----------1-----------|
G|-----------0----------0-------------0-----------0--------------|
D|-------2------2------------------3------------3----------------|
A|---3----------------------3-------------------------------------|
E|-----------------------------------------------------------------|

e|---------------------------------------------------------------|
B|-----------------1-------------------1----------1------------|
G|---------0---------0-------------0-----------0---------------|
D|-----2------2-----------------3-----------3------------------|
A|---3-------------------3----------------3---------------------|
E|---------------------------------------------------------------|

e|---------------------------------------------|
B|-------------------1------------------------|
G|-----------0--------------------------------|
D|--------2----2--------------3--2----------|
A|----3--------------------------------------|
E|---------------------------------------------|


Verse: (2x)
e|---------------------------------------------------------------|
B|-----------------1-------------------1----------1------------|
G|---------0---------0-------------0-----------0---------------|
D|-----2------2-----------------3-----------3------------------| (3x)
A|---3-------------------3----------------3---------------------|
E|---------------------------------------------------------------|

e|---------------------------------------------|
B|-------------------1------------------------|
G|-----------0---------0----------------------|
D|--------2----2--------------3--2----------|
A|----3---------------------------------------|
E|---------------------------------------------|

Chorus: (2x)
e|------------------------------------------------------------------------0-----------------------------------|
B|------------------1---------------------------1-----------------1--------1-----------------------1--------|
G|----------0---------0----------------2-----------2---------2-----2--------2-------------0---------------|
D|------2------2--------2----------3-----3-----------3---3--------------------3-------2-----2------------|
A|---3---------------------------3----------------------------------------------------3-----------------------|
E|-------------------------------------------------------------------------------------------------------------|


e|-----------------0--------------------------0----------------------------------------------------------|
B|----------0---------0--------------1----------1----------------------1--------------------------1----|
G|------0-----0----------0-------2------2---------2-----------0---------0-----------------0----------|
D|--2--------------------------3-----------------------------3-----3----------3---------2-----2-------|
A|---------------------------------------------------------3----------------------------3----------------|
E|--------------------------------------------------------------------------------------------------------|


Verse, chorus...

(the third talking part is played with the chorus arpeggio)

chorus..

last part:
e|--0-------------0-----0-----0-------0-----0------0----------------|
B|--1------1-----1-----1-----0-------1-----1-------1---------------|
G|--0------2-----2-----0-----0-------2-----0-------0---------------|
D|--2------3-----3-----2-----2-------3-----3-------2--------------|
A|--3------3------------3----------------------------3--------------|
E|--------------------------------------------------------------------|
Last edited by crmrz at Oct 29, 2009,