#1
Hi,
Can someone help me figure out the strumming pattern to this song?
http://www.youtube.com/watch?v=ixePt51D5e4

I'm not sure if its

e|--------------------------------------
B|-2-2-----2-2-----2-2-----2-2----------
G|-2-4-----2-4-----2-4-----2-4-----5----
D|-2-4-x-x-2-4-x-x-2-4-x-x-2-4-x-x-5----
A|-2-2-x-x-2-2-x-x-2-2-x-x-2-2-x-x-7----
D|--------------------------------------

Or this

e|--------------------------------------
B|-2-2-----2-2-----2-2-----2-2----------
G|-2-4-----2-4-----2-4-----2-4-----5----
D|-2-4-----2-4-----2-4-----2-4-----5----
A|-2-2-2-2-2-2-2-2-2-2-2-2-2-2-2-2-7----
D|--------------------------------------
P.M    . .     . .     . .     . .


Heres a cover of the song, may become more clear
http://www.youtube.com/watch?v=jcrwAa1sBLY
Please excuse my tab if its bad, first time trying to tab riffs
Thanks
Last edited by Sythun at Oct 30, 2009,
#2
the second one, palm muted.

but... the stumming pattern is the same on both btw
Fender Deluxe Players Stratocaster
Epiphone G-400
Laney VC30
Boss DS-2