#1
If you don't know the song by the name it's the title track from Gran Turismo 5: Prologue

I've not been able to find a tab for this song anywhere and not being good enough to tab it myself haven't been able to learn it that way either!

Anyone know where I can find a tab for it?

Here's a link to the GT5P intro (Just because it's so awesome!)

http://www.youtube.com/watch?v=J_0dseqjAZ0

And to the full song

http://www.youtube.com/watch?v=SFdn4YfihVc
Last edited by MarkyMark8609 at Oct 29, 2009,
#2
standard 1/2 step down

up to 1:43 (I've added the power chords)


Intro:
e|---------------------------------------------------------------------------------|
B|---------------------------------------------------------------------------------|
G|---------------------------------------------------------------------------------|
D|-000000-10---0-10-0-10-0-10------0000000-9---0-9-0-9-0-9-------|
A|----------------------------------------------------------------------------------|
E|----------------------------------------------------------------------------------|

e|------------------------------------------------------------------------------|
B|------------------------------------------------------------------------------|
G|------------------------------------------------------------------------------|
D|--0000000-7---0-7-0-7-0-7---0-5/7--00-3-7---0-7-0-7-0-7------|
A|------------------------------------------------------------------------------|
E|------------------------------------------------------------------------------|

e|---------------------------------------------------------------------------------|
B|---------------------------------------------------------------------------------|
G|---------------------------------------------------------------------------------|
D|-000000-10---0-10-0-10-0-10------0000000-9---0-9-0-9-0-9-------|
A|----------------------------------------------------------------------------------|
E|----------------------------------------------------------------------------------|

e|------------------------------------------------------------------------------|
B|------------------------------------------------------------------------------|
G|------------------------------------------------------------------------------|
D|--0000000-7---0-7-0-7-0-7---0-5/7--00-3-7---0-7-0-7------------|
A|------------------------------------------------------------------------------|
E|------------------------------------------------------------------------------|


----Bb--------------------------------------C-----------------------------------
e|---------------------------------------------------------------------------------|
B|---------------------------------------------------------------------------------|
G|---------------------------------------------------------------------------------|
D|-000000-10---0-10-0-10-0-10------0000000-7---5-7-5-7-5-3-------|
A|----------------------------------------------------------------------------------|
E|----------------------------------------------------------------------------------|

---D---------------------------------------------------------C----------D
e|--------------------------------------------------------------------------------------|
B|-----------------------------------------------------------55555---77----------------|
G|-----------------------------------------------------------55555---77----------------|
D|-0000000--7---0-7-0-7-0-7----0000000--7----33333---55----------------|
A|---------------------------------------------------------------------------------------|
E|---------------------------------------------------------------------------------------|


Verse:

(D bass)------------------------------------------------------------------
e|---------------------------------------------------------------------------------|
B|---------------------------------------------------------------------------------|
G|---------------------------------------------------------------------------------|
D|-000000-10---0-10-0-10-0-10------0000000-9---0-9-0-9-0-9-------|
A|----------------------------------------------------------------------------------|
E|----------------------------------------------------------------------------------|

D------------------------------------------------------------------------
e|------------------------------------------------------------------------------|
B|------------------------------------------------------------------------------|
G|------------------------------------------------------------------------------|
D|--0000000-7---0-7-0-7-0-7---0-5/7--00-3-7---0-7-0-7-0-7------| 2X
A|------------------------------------------------------------------------------|
E|------------------------------------------------------------------------------|

---Bb-------------G-----------Bb----------G-----------
e|---------------------------------------------------------------------------|
B|---------------------------------------------------------------------------|
G|------------------------------55555555--------------------------------|
D|--33333333----------------------------77775555-------------------|
A|----------------55555555----------------------------------------------|
E|--------------------------------------------------------------------------|

----Bb------------G------------Bb----------C--------------
e|---------------------------------------------------------------------------|
B|---------------------------------------------------------------------------|
G|------------------------------55555555--------------------------------|
D|--33333333----------------------------777777777------------------|
A|----------------55555555----------------------------------------------|
E|--------------------------------------------------------------------------|

verse..


e|-------------------------------------------------------|
B|-------------------------------------------------------|
G|---77--777--777----10-10-----------------------|
D|---77--777--777----10-10------------------------|
A|---55--555--555-----8--88------------------------|
E|--------------------------------------------------------|

Chorus?:
---D----------------------Bb-----------------F---------------G----------------
e|-------------------------------------------------------------------------------|
B|-------------------------------------------------------------------------------|
G|--------------------------555555555555----------------------------------|
D|--777777777777777-------------------777777777788888888888-|
A|--------------------------------------------------------------------------------|
E|--------------------------------------------------------------------------------|


-----D----------------------Bb-----------------F---------------G----------------
e|-------------------------------------------------------------------------------------------|
B|--------------------------------------------------------------------------------------------|
G|--------------------------555555555555-----------------------------------------------|
D|--777777777777777-------------------777777777788888888888--10--10-7--|
A|-----------------------------------------------------------------------------------------------|
E|----------------------------------------------------------------------------------------------|
Last edited by crmrz at Oct 30, 2009,