#2
standard 1/2 step down (no strumming, only chords)

you can also check out "All Time Low - 02 Let It Roll (Acoustic)" on YouTube, for better look of the chords..


Intro:

e|---0---------0--0----------0-------0----0---------0----------------------------------|
B|---0---------0--0----------0-------0----0---------0----------------------------------|
G|---1---------6--2----------6-------4----6---------1----------------------------------|
D|---2---------6--2----------x-------x----x----------2----------------------------------|
A|---2---------4--0----------4-------2----4----------2----------------------------------|
E|---0------------------------5-------4----5----------0----------------------------------|

e|---0---------0--0----------0--------0---------------------------------|
B|---0---------0--0----------0--------0---------------------------------|
G|---1---------6--2----------6--------8---------------------------------|
D|---2---------6--2----------x--------x---------------------------------|
A|---2---------4--0----------4--------6---------------------------------|
E|---0------------------------5--------7---------------------------------|


Verse:
e|---0-------0--------0------0--------------|
B|---0-------0--------0------0---------------|
G|---2-------4--------2------4----------------|
D|---2-------1--------2------1-----------------|
A|---0-------2--------0------2----------------|
E|-----------------------------------------------|


e|----0------0------0------0------------0-----0------0-----------------|
B|----0------0------0------0------------0-----0------0----------------|
G|----4------2------1------4------------4-----2------4----------------|
D|----4------2------2------1------------4-----2------1---------------|
A|----x------0-------2-----2------------x------0------2---------------|
E|----4--------------0-------------------4-------------------------------|


Chorus:

e|---0---------0--0--------0----0-------0--------0--0--------------------------------|
B|---0---------0--0--------0----0-------0--------0--0--------------------------------|
G|---1---------6--2--------4----6-------1--------6--2--------------------------------|
D|---2---------6--2--------x----x-------2--------6--2--------------------------------|
A|---2---------4--0--------2----4-------2--------4--0--------------------------------|
E|---0----------------------4----5-------0---------------------------------------------|


Instrumental :

e|----0-------0---0--------0---0------0---0------0--------------------|
B|----0-------0---0--------0---0------0---0------0--------------------|
G|----6-------2---6--------2---2------4---2------5--------------------|
D|----6-------2---6--------2---2------4---2------5--------------------|
A|----4-------0---4--------0---x-------x---0------x--------------------|
E|-------------------------------2-------4----------5---------------------|


2nd verse:

e|---0-------0--------0------0--------------|
B|---0-------0--------0------0---------------|
G|---2-------4--------13-----4----------------|
D|---2-------1--------11-----1-----------------|
A|---0-------2--------0------2----------------|
E|-----------------------------------------------|

e|--0------0------0------0-------0-----0--------------------|
B|--0------0------0------0-------0-----0--------------------|
G|--4------2------1------4------13----16------------------|
D|--4------2------2------1------11----13------------------|
A|--x------0-------2-----2-------0-----14------------------|
E|--4--------------0---------------------0--------------------|

"I know I'll never die alone..."
e|----0---------0-----0------0--------------------|
B|----0---------0-----0------0--------------------|
G|----2---------4-----2------5--------------------|
D|----2---------4-----2------5--------------------|
A|----0---------x------0------x--------------------|
E|--------------4--------------5--------------------|

chorus...

Bridge:

e|--0-------------0--0--------0-------0------0------0------------------------------|
B|--0-------------0--0--------0-------0------0------0------------------------------|
G|--6-------------4--5--------1-------2------4------2-------------------------------|
D|--6-------------4--5--------2-------2------4------2-------------------------------|
A|--4-------------x---x--------2-------x------2------0------------------------------|
E|-----------------4--5--------0-------2-----------------------------------------|

let it roll.....
e|-0---0-----------0--------|
B|-0---0-----------0--------|
G|-4---1-----------2--------|
D|-4---2-----------2--------|
A|-x---2-----------0---------|
E|-4---0----------------------|

Last chorus:
e|---0---------0--0--------0------0-------0--------0--------------|
B|---0---------0--0--------0------0-------0--------0--------------|
G|---1---------6--2--------6------4-------2--------4--------------|
D|---2---------6--2--------6------4-------2--------1-------------|
A|---2---------4--0--------4------2-------0--------2-------------|
E|---0---------------------------------------------------------------|

outro:
e|----0-------0---------0----------------------------|
B|----0-------0---------0---------------------------|
G|----6-------13-------6----------------------------|
D|----6-------11-------6----------------------------|
A|----4-------0---------4----------------------------|
E|----------------------------------------------------|