#3
G7add6:353453


e|--12p10------------------12----------10p8----------------6---------------|
B|--10------10--------------9-----------8------8--------------5---------------|
G|--10----------10---------10----------9---------9-----------6----------------|
D|--10--------------10------9----------10-----------10------5-----------------|
A|----------------------------------------------------------------------------------|
E|-----------------------------------------------------------------------------------|


e|--12p10------------------12---------7p5---------------8/------11/-----14-----|
B|--10------10--------------9----------5------5-----------6/------9/------12-----|
G|--10----------10---------10---------5---------5---------6/-----9/------12------|
D|--10--------------10------9----------5------------5-----7/-----10/-----13------|
A|---------------------------------------------------------------------------------------|
E|---------------------------------------------------------------------------------------|


intro:
Dm7 G7add6 Dm7 G7add6 Dm7 G7add6 A

Verse: (2x)
Dm7 G7add6 Cmaj7 A7
Dm7 G7add6 A7

preChorus:
Fmaj7 Em7 Fmaj Em7 (A7)
Dm7 E7

Chorus: (2x)
Dm7 G7add6 Cmaj7 Am7
Dm7 G7add6 A7


intro, verse, prechorus, chorus..

Bridge:
Dm7 G7add6 Cmaj7 A7
Dm7 Em7 Fmaj7

solo with chorus chords..

Outro:
Dm7 Em7 Dm7 Em7
Last edited by crmrz at Oct 30, 2009,