#1
This is just an Idea,
Like the thread "Tabs for intermediates and advanced"

but, this is songs or pieces that will improve your playing to raise your skill level up a section.

Beginner to Intermittent - Intermediate to Advance - Advanced +

I think this would be helpful to most players, and thought I will bring it here.
#2
Beginner Peice

This is a peice that will generally improve your overall coordination and alternate picking technique.

*For the early stages of a beginner skill level.


e|--------------------------------------------------------------------------|
B|----------0-------------0----------------------------0-------*12----------|
G|------------0-------------0------------7---------------0--------*12-------|
D|------5-------------5------------4-------4-------5------------------------|
A---3-3---3------7-7----7------5-5---5---------3-3---3----------------------|
E|--------------------------------------------------------------------------|



And a decent acoustic solo that I is both fun to play, and easy for beginners.


e|--------------------------------------------------------------------------|
B|--------------------------------------------------------------------------|
G|---------7-----7------7/9-7--5-4----7-5-4-5-4-2/4-2------7-----7-----7/9--|
D-----4-5----4-5----4-5------------5-------------------4-5---4-5---4-5------|
A|--------------------------------------------------------------------------|
E|--------------------------------------------------------------------------|

e|--------------------------------------------------------------------------|
B|-----7/8-8-8-7-7-7-8-8-8/10-10-10-8-8-8-7-7-------------------------------|
G|-7------------------------------------------------------------------------|
D|--------------------------------------------------------------------------|
A|--------------------------------------------------------------------------|
E|--------------------------------------------------------------------------|


Full Tab.
Emily by From First To Last
http://www.ultimate-guitar.com/tabs/f/from_first_to_last/emily_ver2_tab.htm