#1
bass tab to my band's song, "operator." one of my least interesting lines, but it's fun to play.

OPERATOR

INTRO

Op - erator
G------------------------
D------------------------
A------------------------
D-0----------------------
You see ... caller ID
G---------------------|-------------------------------------
D---------------------|-------------------------------------
A---------------------|-------------------4-5-4-5-4---0-0-0-
D-----0-(let ring)----|--4-4-4-4-4-4-4-4--------------------

CHORUS
(x2)
G----------------------------------------------------
D----------------------------------------------------
A-------------------4--------------------------------
D-0--0-0---222--2-3--3-4--4--4-4--4-7-7--11-12-11-12-

POST-CHORUS
G-------------
D-------------
A-------------
D--0--0-0-0---

VERSE 2

G----------------------------------------------------
D----------------------7-------------------7-5-4-0---
A------------------4-5-------------------------------
D-0--0-0---0-0--0-------0--4--4-4--4-7---7-----------

G----------------------------------------------------
D----------------------7-----------------------------
A------------------4-5----------------4-5-4-5-4-0----
D-0--0-0---0-0--0-------0--4--4-4--4-----------------

DANCE BEAT!

G---7---7---7---7---7---7---7---7---------------------------------
D-----------------------------------4---4---4---4---7---7---7---7-
A-5---5---5---5---5---5---5---5-----------------------------------
D---------------------------------4---4---4---4---7---7---7---7---

G---7---7---7---7---7---7---7---7---------------------------------------|---------|
D-----------------------------------4---4---4---4-----------------------|---------|
A-5---5---5---5---5---5---5---5---------------------4-5-4-5-4--0-0------|---------|
D---------------------------------4---4---4---4---------------------0---|-0--0-0-0|

CHORUS

POST-CHORUS

BRIDGE (X3.5 ... on the fourth time stop on the first F#)

G-------------------------------------------
D-------------------------------------------
A-------------------------------------------
D-000000000-----444444444-------------------

BREAKDOWN
(x4)
G--------------------------|-------------------------|
D--------------------------|-------------------------|
A--------------------------|-------------------------|
D-0--0--00000--000--0-0-0--|-0--0--00000--000--6-7-9-|

PRE-CHORUS

G-----------------------------------|
D-----------------------------------|
A-------------------0-0-0-0--4-5-4-5|
D--4-4-4-4-4-4-4-4------------------|

CHORUS until the song ends. During the "hold your breath" part it's just straight eighth notes:

G------------------------------------------------------------------------------------------
D------------------------------------------------------------------------------------------
A-----------------------------------------------4-4-4-4------------------0-0-0-0---4-5-4-5-
D-7-7-7-7--11-11-11-11--0-0-0-0-0-0-0-0-2-2-2-2---------4-4-4-4-4-4-4-4--------------------

#DTWD