I want to pay homage to the guys that got me into guitar, but I need some help...

#1
I am trying to figure this song out by ear, and I've got all the chords and the intro tabbed out right. I tabbed out the verse lead guitar riff, but I can't differentiate whether it starts 1 fret higher or lower from what I tabbed. Can someone help me out? Also, I need some help tabbing the solo and outro lead, so if someone wanted to help me with that too, that would be great, but if not, just helping correct my tab so far would be great...

(Note: Chords and tabs not aligned with words)

Intro: (Weird D chord), Bminor, G, D, A

Bminor G
"Where are you, I can't find you. The sun went down without you...

I didn't ask for you to leave....
e--2-------------2-------------------------------------x
B--3------3----------3------2---------2-----3p2----2
G--2----------2----------2----------------2-------2--2
D--0--0------------------------------2----------------2
A--x------------------------------0--------------------0
E--x----------------------------------------------------x

Bminor G
I don't know where I'm goin'...The stars will fade to black

I need your light to shine with me....
e--2-------------2-------------------------------------------x
B--3------3----------3------2---------2-----3p2----------2
G--2----------2----------2----------------2-------2--------2
D--0--0------------------------------2----------------2-----2
A--x------------------------------0-----------------------0- 0
E--x----------------------------------------------------------x

D Bminor
'Cause even when I'm on my own, I am never left alone...
G D A
You've answered the question, that it is not the end...
D Bminor
You were my breath of life, every time I see your eyes...
G D A
The chance will last forever, so say goodbye to wondering...

Musical Break:
D, Bminor, G, D, A

Bminor G
"Where are you, I can't find you. The sun went down without you...
D A
I didn't ask for you to leave....

(And here's the main part that I can't figure out if it's correct or not)


I don't know where I'm goin', the stars will fade to black....
e----------------------------------------------------------------------------
B----------------------------------------------------------------------------
G------------7--------------------------------------------------------------
D-10-9-10----10-9----------------7--------------------------------------
A----------------------10-10-9-10---10-9----------------7---------------
E----------------------------------------------10-10-9-10---10-9-10---

I need your light to shine with me
e----------------------------------------------------------------------------
B----------------------------------------------------------------------------
G---------------------------------------------------------------------------
D----------------------------------------------------------------------------
A--11-12-14-16-14-12-12p11-----------------------------------------
E------------------------------------12-16--------------------------------------

Then the solo and outro solo...I have no clue...I was hoping for some help, but if not, that's okay too.

The song can be downloaded at: Goodbye To Wondering.m4a.MP3 - 3.94MB

Thanks for the help!
#2
I've isolated the very last note that I tabbed out and held a tuner up to the speakers, as well as used a trial and error method to find the right note for that, and I think the last note is an A, if that helps at all...