#1
ok this maybe odd for 99.9% of the guitarists here to do ..but i need the rhythm n solo for this pakistani song..plz plz plz figure em out for me..only wht the guitarist on the white guitar is playing along the song..the constant tune kinda thing..n the solo..love yall!

HERE: http://youtube.com/watch?v=EYk95z1wSgY
#4
Just the intro..sorry, no solo...
chords:
e|-----0-------0---------0--------0------------------|
B|-----1-------3---------1--------3------------------|
G|-----0-------0---------0--------0------------------|
D|-----2-------4---------2--------4------------------| etc..
A|-----3-------5---------3--------5------------------|
E|-----------------------------------------------------|

Strumming: (U=Up D=Down)

D UD D UDD


Riff (with delay):

e|-----------------------12----------------------------------------------------------|
B|------------13-------------13-----------------------------------------------------|
G|--11/12-------12-----------------------------12-------------------12-----------|
D|----------------------------------12----14--------------------14-----------------|
A|-------------------------------------------------------------------------------------|
E|-------------------------------------------------------------------------------------|

e|-----------------------12----------------------------------------------------------|
B|------------13-------------13----------------------------------------12-13------|
G|--11/12-------12-------------------------------12---------14-14--------------|
D|-----------------------------------12----14--------------------------------------|
A|-----------------------------------------------------------------------------------|
E|-----------------------------------------------------------------------------------|


This is the rest of the chords if you want them...
e|---0-------0-8---0-8----------0-------0-8----0-8---------------------|
B|---8-------6-6---6-6----------8-------6-6----6-6---------------------|
G|---0-------0-0---0-0----------0-------0-0----0-0---------------------|
D|---9-------7-7---7-7----------9-------7-7----7-7---------------------|
A|---7-------5-5---5-5----------7-------5-5----5-5---------------------|
E|---------------------------------------------------------------------------|


e|----0--0-------0--0---------------|
B|----3--3-------3--3---------------|
G|----0--0-------0--0---------------| (2x)
D|----4--4-------4--4---------------|
A|----2--3-------2--3---------------|
E|-------------------------------------|

e|--2-------3--------0-------------------------|
B|--3-------3--------1-----------------------|
G|--2-------2--------2---------------------| (2x)
D|--0-------0--------2-----------------------|
A|--------------------0-----------------------|
E|---------------------------------------------|
#5
awwwwwesomeeeee..thnx so much man..i hope u figure out the solo for me too..take ur time, its ok =)