#1
i looked up the tab Anejo by Burn Halo. and the intro solo and some other spots dont sound to good.

so i would appreciate some help on this the intro/solo dosnt sound to good. so i tryed to tab it out off the solo that was there. but im not too good at that yet. so i could use your help.

this is the original:
e|-----------------------------------|
B|-13b15-13~-15-10-10-13-10----------|
G|-------------------------~---------|
D|-----------------------------------|
A|-----------------------------------|
D|-----------------------------------|

e|-------------------------------------|
B|-13----------13----------------------|
G|----12b14-12----9-9b------------10---|
D|--------------------7-10-10--12----12|
A|-------------------------------------|
D|-------------------------------------|
listen to the song and u'll know it dosnt sound right.


this is a what i came up with for the first part:
e|--------------------------------|
B|-13b15-13~-15b17r15-10--13-10~--|
G|--------------------------------|
D|--------------------------------|
A|--------------------------------|
D|--------------------------------|


tell me what ya think and tell me if anything soud better

ps u might wanna paste this into a notepad with the font type courier new so that tab reads better