#1
I was wondering if someone could tab out the "robot" vocal part from blast off. It starts at 1:46 in this video and ends at 2:09. I want to try it with a wah, and if you could help it would be great!
#2
e|----------6------------------------------------------------------------------------|
B|---8---8----8---8-6------------6/8--6-----6--8--6----------------------------|
G|-----------------------8--5---------------8-------------8-------5---------------|
D|-------------------------------------------------------------8-------8-6---------|
A|-----------------------------------------------------------------------------------|
E|-----------------------------------------------------------------------------------|

e|-------------------------------------------------------------------------------------------------|
B|--------------6--8--6----6------8--6------------------------------------9--8--6----8-------|
G|-5--77--8------------8---------------8------5---------------5--7--8-----------8----------|
D|---------------------------------------------8-----8--6----------------------------------------|
A|-------------------------------------------------------------------------------------------------|
E|-------------------------------------------------------------------------------------------------|


e|--4/6--------------------------------|
B|--------8-6--------------------------|
G|--------------8--5-------------------|
D|---------------------------------------|
A|---------------------------------------|
E|---------------------------------------|