#1
e|------------------------------------------------------------7-8-9-10-
B|---------------------------------------------------7-8-9-10----------
G|--------------------------5-6-7-8-9-8-7-6-7-8-9-10-------------------
D|------------------5-6-7-8--------------------------------------------
A|----------5-6-7-8----------------------------------------------------
E|--5-6-7-8------------------------------------------------------------

e|--11-10-9-8--------------------------------------------------------------
B|------------11-10-9-8----------------------------------------------------
G|----------------------11-10-9-8------------------------------------------
D|--------------------------------11-10-9-8-7-8-9-10-9-8-7-6---------------
A|-----------------------------------------------------------9-8-7-6-------
E|-------------------------------------------------------------------9-8-7-

I found this in the following article: http://www.ultimate-guitar.com/lessons/correct_practice/a_productive_practice_session.html?1676221790

He claims this is a run through the chromatic scale. Why is it missing a few notes? For example, it is missing C# from the low E at the start and B on the G string.

Am I missing something?
#2
That's just an exercise to get your fingers used to a chromatic pattern. Anyone can figure out chromatic scales on their own.
#3
Quote by glooper23
e|------------------------------------------------------------7-8-9-10-
B|---------------------------------------------------7-8-9-10----------
G|--------------------------5-6-7-8-9-8-7-6-7-8-9-10-------------------
D|------------------5-6-7-8--------------------------------------------
A|----------5-6-7-8----------------------------------------------------
E|--5-6-7-8------------------------------------------------------------

e|--11-10-9-8--------------------------------------------------------------
B|------------11-10-9-8----------------------------------------------------
G|----------------------11-10-9-8------------------------------------------
D|--------------------------------11-10-9-8-7-8-9-10-9-8-7-6---------------
A|-----------------------------------------------------------9-8-7-6-------
E|-------------------------------------------------------------------9-8-7-


I found this in the following article: http://www.ultimate-guitar.com/lessons/correct_practice/a_productive_practice_session.html?1676221790

He claims this is a run through the chromatic scale. Why is it missing a few notes? For example, it is missing C# from the low E at the start and B on the G string.

Am I missing something?

Yep. A C#, and a B, as you already said, along with various other notes

You should put tabs in quote tags, or make the font Courier New or something. It makes them easier to read.

Technically, the definition of 'chromatic' is something that is relating to chords or harmonies based on nonharmonic tones, which means the tabs you posted have been labelled correctly.
Last edited by TheWickerMan666 at Nov 4, 2009,