#1
I was hoping there would be some tabs here by a band called 'FASYLIVE'
You can check it out on Youtube...

http://www.youtube.com/watch?v=qY23Uy7IoRc

Anyways the song is called 'Your betrayal'..It's an awesome song check it out..
Tell me when any of you get it

Make UG better.. Build your legacy here..
Last edited by MaddMann274 at Nov 5, 2009,
#2
up to 0:49


e|------------------------------------------------------------|
B|------------------------------------------------------------|
G|------------------------------------------------------------|
D|--------9-10---9-10---7-9--5-7--4-5--0--------------|
A|------------------------------------------------------------|
E|-00--------------------------------------------------------|

e|------------------------------------------------------------|
B|------------------------------------------------------------|
G|------------------------------------------------------------|
D|--------9-10---9-10---7-9--5-7--4--------------------|
A|------------------------------------------------------------|
E|-00--------------------------------------------------------|

e|------------------------------------------------------------------------------------|
B|------------------------------------------------------------------------------------|
G|------------------------------------------------------------55----------------4---|
D|--------9-10---9-10---7-9--5-7--4-5--2----------55------5--------44-------| repeat
A|--------------------------------------------------33---------------22------------|
E|-00--------------------------------------------------------------------------------|


e|-------------------------------------------------------------------------------------------------------|
B|-------------------------------------------------------------------------------------------------------|
G|------9--11--11^vp9--11---9-11------------9-11--11^vp9-11---9-11\2------2------2----|
D|--9------------------------------------9------9------------------------------------------------------|
A|-------------------------------------------------------------------------------------------------------|
E|-------------------------------------------------------------------------------------------------------|


e|---------------------------------------------------------------------------|
B|-------2---4-5----4^---4^v2--4-----4^vp2-------------------------|
G|---------------------------------------------------3----3---3---2^v----|
D|---------------------------------------------------------------------------|
A|---------------------------------------------------------------------------|
E|---------------------------------------------------------------------------|
Last edited by crmrz at Nov 5, 2009,