#1
Just wondered if anyone could share the bass tabs for Elvin Bishop's "Fooled Around and Fell In Love". I've looked on a few sites but couldn't find the tabs. Thanks.
Fender Geddy Lee, Precision (MIA), Fender Standard Jazz, Ibanez SR700, GK MB210 combo, GK 210MBE
#2
intro & verse pattern:
G|----------------5--7\2------2--------2-------------------------------------------3-------------|
D|--3---3-5/7--------------2-------2----2-1----------0-1------------------0--3-------5-3----|
A|-----------------------------------------------------3-------------0-1------------------------5-|
E|-----------------------------------------------------------------3--------------------------------|


chorus
G|----------------5--7\2--2-0--0----------------------------------------------------------------------|
D|--3---3-5/7---------------------2--2------1----1----------0-1---------------0--0--3--3--0-1-2-|
A|-------------------------------------------3----3---------3-------------0-1--1-----------------------|
E|-----------------------------------------------------------------------3--------------------------------|

G|----------------5--7\2--2-0--0----------------------------------------------------------3-----------|
D|--3---3-5/7---------------------2--2------1----1----------0-1------------------0--3------5-3----|
A|-------------------------------------------3----3---------3-------------0-1------------------------5-|
E|-----------------------------------------------------------------------3--------------------------------|

bridge: (with the final part of the chorus)
G|--------------------------3--5-----------7/9--7-5----3------------------|
D|--------0-0---3-3---5---------5-------------------------3--0-----------|
A|-1-1--------------------------------7----------------------------1-------|
E|----------------------------------------------------------------------1-2-|

G|------------------------------------------------------------------|
D|------------------------------------------------------------------|
A|--------------------5--3-3-------------------5-3-3/8----------|
E|--3-3-3--3--3-3-----------3-3-3--3-3-3----------------------|
Last edited by crmrz at Nov 7, 2009,
#3
Thanks for the tabs...appreciate it.
Fender Geddy Lee, Precision (MIA), Fender Standard Jazz, Ibanez SR700, GK MB210 combo, GK 210MBE