#2
standard 1/2 step down


(Acoustic guitar)

e|-----------0------------------0-------------------0-----------------------------0---------|
B|-------3------3-----------3------3-----------3-----------------3-3---------------3------|
G|---2---------------0h2---------------0h2-------------------0-------------0--------------|
D|---0---------------0------------------0----------------------------------------------------|
A|--------------------------------------------------------0h3------------2------------------|
E|---------------------------------------------------------------------------------------------|

e|------------------------------------------------------------------------------------------0----|
B|-----------------------3--3----------------------------------------------3-3---------------3-|
G|-------------------2----------------0-0---------0-0-----------------0-------------0---------|
D|--0h2p0-----0--------------3p0--------3p0-------3p0------------------------------------|
A|-----------3---------------------------------------------------0p3--------------2-------------|
E|-------------------------------------------------------------------------------------------------|

e|------------------------------------------------------------------------------------------0----|
B|-----------------------3--3----------------------------------------------3-3---------------3-|
G|-------------------2----------------0-0---------0-0-----------------0-------------0---------|
D|--0h2p0-----0--------------3p0--------3p0-------3p0------------------------------------|
A|-----------3---------------------------------------------------0p3--------------2-------------|
E|-------------------------------------------------------------------------------------------------|


e|----------------------------------------------------------------------------------------------|
B|-----------------------3--3----------------------------------------------3-3----------------|
G|-------------------2----------------0-0---------0-0-----------------0----------------------|
D|--0h2p0-----0--------------3p0--------3p0-------3p0-----------------------------------|
A|-----------3---------------------------------------------------0p3--------------2-----------|
E|-----------------------------------------------------------------------------------------------|


(electric guitar)

e|---------------------------------------------------------------------|
B|---------------------------------------------------------------------|
G|--2------------0-0-------0-0--------------------------------------|(2x)
D|--0---0-3p0-------3p0-------3p0--------------0h2p0---------|
A|----------------------------------------3--2----------------3p0---|
E|----------------------------------------------3---------------------|


e|---------------------------------------------------------------------|
B|---------------------------------------------------------------------|
G|--2------------0-0-------0-0--------------------------------------|
D|--0---0-3p0-------3p0-------3p0-------------------------------|
A|----------------------------------------3--2------------------------|
E|----------------------------------------------3---------------------|