#1
Hi!
The song "wenn du fliegst" from Ina Mueller is like the song "in your arms" from stanfour. So I found the most of the tabs. But in the song from Ina, there's one part different and I need your help to find out the tabs. The part concerns the text:
"wenn du dich traurig fühlst
vergessen und allein
nimm diesen blick von mir
und hüll dich darin ein
darin ein"
You can listen to this song here:
http://www.youtube.com/watch?v=VfuxO-gTk4U
and the tabs in the beginning are: G D/Fis em C
Thanks a lot!!!
#2
standard and capo on 2nd fret

intro:
e|----------------------------------------------------------------------------------------------|
B|---------------3--------------------3-----------------------3---------------------3----------|
G|-------0---------0----------0---------0------------2----------2---------2---------2-------|
D|----------0---------0----------0---------0------------0----------0----------0--------0----|
A|-----------------------------------------------------------------------------------------------|
E|---3---------------------3---------------------2----------------------2----------------------|


e|----------------------------------------------------------------------0-----|
B|--------------3---------------------3-------------------------3------------|
G|------0---------0-----------0---------0-------------0----------0---------|
D|----------2---------2----------2----------2------------2-----------------|
A|---------------------------------------------------3------------------------|
E|--0---------------------0---------------------------------------------------|

Chords:
Ebmaj7: x65333
Dsus:xx233
Cadd9:x32033

Bridge:
Ebmaj7 D Dsus D
Cadd9 D
#3
Quote by crmrz
standard and capo on 2nd fret

intro:
e|----------------------------------------------------------------------------------------------|
B|---------------3--------------------3-----------------------3---------------------3----------|
G|-------0---------0----------0---------0------------2----------2---------2---------2-------|
D|----------0---------0----------0---------0------------0----------0----------0--------0----|
A|-----------------------------------------------------------------------------------------------|
E|---3---------------------3---------------------2----------------------2----------------------|


e|----------------------------------------------------------------------0-----|
B|--------------3---------------------3-------------------------3------------|
G|------0---------0-----------0---------0-------------0----------0---------|
D|----------2---------2----------2----------2------------2-----------------|
A|---------------------------------------------------3------------------------|
E|--0---------------------0---------------------------------------------------|

Chords:
Ebmaj7: x65333
Dsus:xx233
Cadd9:x32033

Bridge:
Ebmaj7 D Dsus D
Cadd9 D



Thank you for your help!!!