#1
http://www.youtube.com/watch?v=xQda8yuuuts

So the song is a long instrumental, the bass is pretty easy to figure out except at the end of the measures, which basically go like this:

G|-------------------------------------------------------------------
D|-------------------------------------------------------------------
A|-10--10--10---10-10-10-10--10--10---10-10-10-10-
E|------------------------------------------------------------------- repeating etc.

What I'm confused about is the short bit played at the end of that cycle, it's first played at 50 seconds in on the video I linked to. Thanks to anyone that gives in a good shot.
G&L ASAT Semi-Hollow
Ibanez SR305 DX
Washbrun XB100 (modified)
Ibanez SW35

Fender Telecaster (MIM)
Orange Crush 15R

Danelectro Corned Beef Reverb
Digitech Hardwire DL-8
Last edited by Helbent Revenge at Nov 9, 2009,
#2
Come on guys, it lasts like 2 seconds, that's all I'm asking, I've even linked the song and the time that the riff is played at. Any help at all?
G&L ASAT Semi-Hollow
Ibanez SR305 DX
Washbrun XB100 (modified)
Ibanez SW35

Fender Telecaster (MIM)
Orange Crush 15R

Danelectro Corned Beef Reverb
Digitech Hardwire DL-8
#3
I think it alternates between something like this


G|-------12------11------12-----11-|
D|---------------------------------|
A|-10---------10-----10-----10-----|
E|---------------------------------|


and


G|-----12p11-----11-----12-----11-|
D|--------------------------------|
A|-10---------10-----10-----10----|
E|---------------------------------|

for the first 2 minutes

hope it helps, i just sat through and played along quickly
#4
the bass pattern never changes ...it's the one you described:
G|---------------------------------------------------------------------------|
D|---------------------------------------------------------------------------|
A|----10---10-10-10----10---10----------------------------------------|
E|---------------------------------------------------------------------------|

..but I can hear a 1st guitar playing this at the end ..
e|---------------------------------------------------------------------------|
B|---------------------------------------------------------------------------|
G|---------------------------------------------------------------------------|
D|---4-55-----4-55-------------------------------------------------------|
A|---------------------------------------------------------------------------|
E|---------------------------------------------------------------------------|
#5
I would like to add something..tabbing a song takes time (sometimes hours)and on top of that we're doing it for free..something I noticed here on this thread is that some people who requests songs expect someone to answer right away (like we don't work or do something else with our lives) and to make matters worse, when we tried to help them, they never come back to check their requests..come on people, look at your requests after a few days! I can say that for all the songs I tabbed here about 20 % of the guys come back to see if someone has helped..
I like to tab songs no only to help, this gives me tons of experience and I've learned a lot here......
Last edited by crmrz at Nov 11, 2009,
#6
Quote by crmrz
I would like to add something..tabbing a song takes time (sometimes hours)and on top of that we're doing it for free..something I noticed here on this thread is that some people who requests songs expect someone to answer right away (like we don't work or do something else with our lives) and to make matters worse, when we tried to help them, they never come back to check their requests..come on people, look at your requests after a few days! I can say that for all the songs I tabbed here about 20 % of the guys come back to see if someone has helped..
I like to tab songs no only to help, this gives me tons of experience and I've learned a lot here......


I totally agree with you