#1
I am bad to listening...
That is a problem, cause I have to get the tabs for this beautifully song..
Maybe one of you could help me with getting them...
The song is made by FM Static and the name of the song is Girl of the Year..

It would be nice if one would help me and got the time.
#2
learn it by ear, youll get better at your instrument alot faster.

nobody learns without putting the time and effort in to learn the instrument and the sounds it makes.
Equipment:

ESP F104 Bass
Spector Legend 5 Classic Bass
ESP B206SM Bass
Axl Mayhem Fireaxe Guitar
Gallien-Krueger 400RB-III Combo Bass Amp
Gallien-Krueger 115SBX Bass Cabinet
#3
dude, it's pretty easy... find the guitar tab on UG and then just play the bass notes of the guitar chords...
smile
#4
Okay, Thanks..
It easy that way
But what about some lift...
If you know...
What is and nice bass without lift..
Do you have any tips doing lifts from one tone to another?
#5
verse:
G|----------------------------------------------------------|
D|---------------------------------------------------------| (2x)
A|--55---------33----------55--------33---------------|
E|--------55---------3------------55-------3--2-3-2---|

G|-----------------------------------------------------|
D|-----------------------------------------------------|
A|----3333333------------------------------------|
E|--------------------5555-555--------------------|

chorus:
G|---------------------------------------------------------------------------|
D|---------------------------------------------------------------------------|
A|---55------------------------------------------------------------------------|
E|--------55---333----0--000----333---0--000---6666--5---5---------|

G|---------------------------------------------------------------------------|
D|---------------------------------------------------------------------------|
A|---5--5------------------------------------------------------------------------|
E|--------5--5---333----0--000----3333333---555555---------|


last part of chorus before bridge:
G|-------------------------------------------------------------------|
D|-------------------------------------------------------------------|
A|---5--5------------------------------------------------------3---|
E|--------5--5---333----0--000----3333333---5555---------|


bridge:
G|---------------------------------------------------------------------------|
D|---------------------------------------------------------------------------|
A|---5555-----------------------------5555------------------------------| (6x)
E|------------5555---3333--333------------5555---0000---333-----|

chorus..


G|------------------------------------|
D|----------------------------------|
A|---5--5---------------------------|
E|--------5--5---3--3----0-----------|

G|-------------------------------------------|
D|--------------------------------------------|(4)
A|---5--5------------------------------------|
E|---------5--5---3--3----0-----------------|

G|-------------------------------------------------------------------|
D|-------------------------------------------------------------------|
A|---5--5---------------------------------------------------------|
E|--------5--5---333----0--000----3333333---5555---------|
Last edited by crmrz at Nov 10, 2009,