#1
Standard tuning

Verse:

---------------------------------------------------------------------------------------------
---------------------------------------------------------------------------------------------
---------------------------------------------------------------------------------------------
---------------------------------------------------------------------------------------------
----5--5-----5--5---2--2---5--5--------------------------------------------------------------
----3--3-----3--3---0--0---3--3---------------------------------------------------------------


Bridge (I think)

---------------------------------------------------------------------------------------------
---------------------------------------------------------------------------------------------
---------------------------------------------------------------------------------------------
----7-7-7-7-7-7-9-9-5-5-5-5-5-5-5-5----------------------------------------------------------
----5-5-5-5-5-5-7-7-3-3-3-3-3-3-3-3----------------------------------------------------------
---------------------------------------------------------------------------------------------


So...can anyone help?
#2
No.
♥♥♥♥♥♥♥♥♥♥♥♥♥♥♥♥♥♥♥♥♥♥♥♥♥♥♥
the jonas brothers are sooo
█▄█ █▀█ ▀█▀
█▀█ █▄█ ♥█
☆┌─┐ ─┐☆
 │▒│ /▒/
 │▒│/▒/
 │▒ /▒/─┬─┐
 │▒│▒|▒│▒│
┌┴─┴─┐-┘─┘
│▒┌──┘▒▒▒│
└┐▒▒▒▒▒▒┌┘
 └┐▒▒▒▒┌┘ PEACE! LOVE! JONAS!
♥♥♥♥♥♥♥♥♥♥♥♥♥♥♥♥♥♥♥♥♥♥♥♥♥♥♥
#3
At first I thought it was Everclear- Santa Monica.

Then I realized I'm drunker than shit so don't trust me.
Quote by herby190
Every thread I've seen you in has been a complete success. Yay you!

Quote by theking182
i'm voting for GNiCk89. i just like how he speaks TO me, not AT me.

Quote by \m/Angus\m/
Yea, Sublime is a great band. You have an Underoath icon, so I think your opinion doesn't matter.
#4
Quote by GNiCk89
At first I thought it was Everclear- Santa Monica.

Then I realized I'm drunker than shit so don't trust me.

Well, it's that, so thanks for the help.
#6
Quote by Alex Vik
Well, it's that, so thanks for the help.

Really?
Quote by herby190
Every thread I've seen you in has been a complete success. Yay you!

Quote by theking182
i'm voting for GNiCk89. i just like how he speaks TO me, not AT me.

Quote by \m/Angus\m/
Yea, Sublime is a great band. You have an Underoath icon, so I think your opinion doesn't matter.
#8
Quote by Alex Vik
Yes, really.

Damn dude. That's awesome. Well shit, glad I could help out. I should probably go to sleep now before whoever the fuck this laptop belongs to dies.
Quote by herby190
Every thread I've seen you in has been a complete success. Yay you!

Quote by theking182
i'm voting for GNiCk89. i just like how he speaks TO me, not AT me.

Quote by \m/Angus\m/
Yea, Sublime is a great band. You have an Underoath icon, so I think your opinion doesn't matter.
#9
Quote by Alex Vik
Well, it's that, so thanks for the help.


i lol'd

Case closed.
Most of the important things


in the world have been accomplished


by people who have kept on


trying when there seemed to be no hope at all