#1
Hey There!
So I'm Writing To Anyone Who Wouldn't Mind Attempting To Tab A Song By An Irish Pop-punk Band called The Shower Scene, The Song's Called "For What It's Worth" there isn't a studio version but there is a video where they play it for a camera, it's very high quality and you can see there hands so that makes it slightly simpler!
this is the acoustic version: here!
My Band are planning to cover a few of there songs and among them is this one, i attempted to tab it but after much frustration, i failed
So If Anyone Would Like To Try It I'ld Be Very Grateful!
Thanks In Advance,

AlwaysRepel/NeverForget
#2
Just ask the lads. GOC or Eoghan will tab one for ya lol.
gear:
Custom built Strat
Esp ltd EC-1000
Gibson les paul fadded dc
Line 6 spider II 30watt
Boss Ds1, DD6,Tu-2, NS
Alvarez af60ckelectro/acoustic
#3
standard 1/2 step down

Verse:

2nd guitar:
e|---------------------------------------------------------------------------|
B|-----------0--------------0-------------0---------------0----------------|
G|--------7----7---------7---7--------7----7----------7---7-------------|
D|---------------------------------------------------------------------------|
A|---------------------------------------------------------------------------|
E|---7---------------7-------------7--------------7------------------------|

e|---------------------------------------------------------------------------|
B|----------0----------------0------------0-----------------0--------------|
G|-------4----4----------4----4--------4---4-----------4----4------------|
D|---------------------------------------------------------------------------|
A|---------------------------------------------------------------------------|
E|---3--------------3---------------3--------------3-----------------------|

e|---------------------------------------------------------------------------|
B|------------0-------------0--------------0--------------0----------------|
G|---------6----6--------6---6---------6---6---------6----6-------------|
D|---------------------------------------------------------------------------|(2x)
A|---------------------------------------------------------------------------|
E|---5---------------5--------------5-------------5------------------------|

pre chorus:

1rst guitar:
e|-------------2-------------2---------------2----------|
B|---------3-----3-------3------3--------3----3-------|
G|----4----------------4--------------4----------------|and so on for the entire pre-chorus
D|-------------------------------------------------------|
A|-------------------------------------------------------|
E|-------------------------------------------------------|

2nd guitar:
e|---------------------------------------------------------------------------------------------------------|
B|------------0-------------0--------------0-----------0-----------0----------0----------0---------0---|
G|---------4----4-------4-----4--------6---6-------6--6-------7---7------7--7-----7----7----6---6-|
D|----------------------------------------------------------------------------------------------------------|
A|----------------------------------------------------------------------------------------------------------|
E|----3-------------3---------------5------------5-----------7----------7---------7-----------5--------|

e|-----------------------------------------------------------------------------------------------------------|
B|------------0-------------0--------------0-----------0-----------0------------0----------0---------0---|
G|---------4----4-------4-----4--------6---6-------6--6-------7---7--------7--7-----7----7----7---7-|
D|------------------------------------------------------------------------------------------------------------|
A|------------------------------------------------------------------------------------------------------------|
E|----3-------------3---------------5------------5-----------7-------------7---------7-----------7--------|

e|---------------------------------------------------------------------------------------------------------|
B|------------0-------------0--------------0-----------0-----------0----------0----------0---------0---|
G|---------4----4-------4-----4--------6---6-------6--6-------7---7------7--7-----7----7----6---6-|
D|----------------------------------------------------------------------------------------------------------|
A|----------------------------------------------------------------------------------------------------------|
E|----3-------------3---------------5------------5-----------7----------7---------7-----------5--------|

e|-----------------------------------------------------------------------------------|
B|------------0-------------0--------------0-----------0--------------------------|
G|---------4----4-------4-----4--------6---6-------6--6-------7----------------|
D|----------------------------------------------------------------0-----------------|
A|----------------------------------------------------------------x------------------|
E|----3-------------3---------------5------------5--------------7----------------|


chorus:
for the 2nd guitar, he plays power chords (B:x24xxx, G:35xxxx A:57xxx,
sometimes A:x02xxx) he uses the index and ring fingers...chorus is basically verse and pre-chorus chords..

1st guitar:
-----B----------------------------------------------------------------G--------------------
e|------------------------------------------------------------------------------------------|
B|------------------------------------------------1414141414----1010101010------|
G|---777777---999999---111111111-----------------------------------------------|
D|------------------------------------------------111111111-----7-7-7-7-7-7-7-----|
A|---555555---777777---9-9-9-9-9-9----------------------------------------------|
E|-------------------------------------------------------------------------------------------|

---------------------A------------------------------------------------------
e|---------------------------------------------------------------------------|
B|------------------101010101010--------------------------------------|
G|---999---7------------------------------77---999999---11111111--|
D|-----------------7-7-7-7-7-7-7-7----------------------------------------|
A|---777---5------------------------------55---777777---9-9-9-9-9----|
E|---------------------------------------------------------------------------|

------B-------------------------------------------G----------------------------------------------------------
e|------------------------------------------------------------------------------------------------------------|
B|------------------------------------------------1414141414--1515151515---17--1919191919--|
G|---777777---999999---111111111------------------------------------------------------------------|
D|------------------------------------------------111111111----1212121212--14--1616161616--|
A|---555555---777777---9-9-9-9-9-9-----------------------------------------------------------------|
E|------------------------------------------------------------------------------------------------------------|

------A----------------------------------------------
e|-------------------------------------------------------------|
B|----1717171717----15---141414141414------------|
G|------------------------------------------------------------|
D|---1414141414----12----11111111111-------------|
A|-------------------------------------------------------------|
E|-------------------------------------------------------------|

G-------------------A----------------------B------------------------------
e|--------------14------------------14-----------------14-----------------|
B|---------15-------15--------15-------15-------15------15------------|
G|----16------------------16------------------16-------------------------| etc..for the rest of chorus
D|---------------------------------------------------------------------------|
A|---------------------------------------------------------------------------|
E|---------------------------------------------------------------------------|