#2
Intro:
e|------------------0-------------------0--------------|
B|------------------0-------------------0--------------|
G|------------------1-------------------1--------------|
D|--------2222---4----------2222---4--------------|
A|--2/4------------2----2/4----------2---------------|
E|------------------0-------------------0--------------|


verse:
e|-----------0----------------------------0-----0------------------------|
B|-----------0--------------------4------0-----0----0-----4------------|
G|-----------1--------------------4------2-----2----2-----4-------------|
D|-----------2----------2222----2------2-----2---4-----2-------------|
A|-----------2------2/4----------4------0-----2----3-----4-------------|
E|-----------0-----------------------------------0--------------------------|

e|------------------0-----------------------------0-----0-----------4----------4---0----0----|
B|------------------0----------------------4------0-----0----0-----5----4----5---0-----0---|
G|------------------1----------------------4------2-----2----2-----6----4----4---2----1----|
D|------2222------4-----------2222----2------2-----2----4-----6----4----6---2----4----|
A|-2/4-------------2------2/4------------4------0-----2----3-----4----6----7---2----2----|
E|------------------0------------------------------------0---------------------------0----0----|


chorus:
e|-----------0------3-------0--------------|
B|----4-----0------3-------0--------------|
G|----4-----2------0-------2--------------|
D|----2-----2------2-------2--------------|
A|----4-----0------3-------2--------------|
E|---------------------------0--------------|