#1
Me and my band are going to play hold the line by toto, but unfortunantly i am totaly unable to do the solo.
Is there anybody here who got any tips, lessons or anything that can help me do this solo?

Thanks in advance!
gr8 b8 m8 i r8 8/8
#2
use a scale, usually an Am Pentatonic Scale or Em Pentatonic Scale will work with just about any song. here they are:

Am Em
|------------------------------5--8--| |------------------------------------------12--15--|
|-----------------------5--8---------| |--------------------------------12--15------------|
|----------------5--7----------------| |----------------------12--14----------------------|
|---------5--7-----------------------| |------------12--14--------------------------------|
|--5--8------------------------------| |--12--15------------------------------------------|
|
MY GEAR!

Indiana IE1-TSB Electric
Kay K-592 Acousitc
Washburn XS-2 Bass
Peavey VYPYR30 with Sanpera I footswitch
Jay Turser Acoustic Electric
Paul Reed Smith (PRS) Custom SE 24 Black Cherry

www.myspace.com/12goodomens
#3
I play this song with my band too, and I'm also unable to do the original solo since it's quite hard. You can use the F# Minor Pentatonic scale to improvise the solo if you're unable to play the original one.

|------------------------------------------14--17--|
|--------------------------------14--17------------|
|----------------------14--16----------------------|
|------------14--16--------------------------------|
|--14--17------------------------------------------|