#2
intro with no picking


e|--------2------|------------------------2----------------------2----------|
B|--------3------|--------------3--------3----------3-----------3-----------|
G|--------2------|---0h2--2------------2----------0-----------2-----------|2x
D|----0----------|-------------------0--------------0-------0---------------|
A|----------------|------------------------------2----------------------------|
E|----------------|------------------------------------------------------------|

e|-------------------------2-------------------------2-------3p2------------------|
B|----------------3-------3-----------------3-------3--------------3--------------|
G|-----0h2--2-----------2-------0h2--2----------2------------------2----------|
D|---------------------0-------------------------0-------------------------0-------|
A|-----------------------------------------------------------------------------------|
E|------------------------------------------------------------------------------------|

Verse:
D G D D G D (2)

Chorus:
G D A D G D A

Bridge:
G Em D A
G D A

last chorus adds a final D