#1
Very simple and easy bluesriff

e|---------------------------------------------------------------------------|
B|---------------------------------------------------------------------------|
G|---------------------------------------------------------------------------|
D|-----------------2----------------------------------------------------------|
A|--2-2------2------------------------------------------------------------|
E|--0-0-3-4---4---4-------------------------------------------------------| x2

e|---------------------------------------------------------------------------|
B|---------------------------------------------------------------------------|
G|---------------------------------------------------------------------------|
D|--2-2------5---4--------------------------------------------------------|
A|--0-0-3-4---0-----------------------------------------------------------|
E|---------------------------------------------------------------------------| x2

e|---------------------------------------------------------------------------|
B|--------------------------------2-----------------------------------------|
G|--------------------------------1------------------------------------------|
D|--------------------------------2------------------------------------------|
A|-------2-------0-0-1-1-2-0--2------------------------------------------|
E|----0-0-4-4--------------------------------------------------------------|


And then over again
Hagström Swede Goldtop

Modified Squier Strat
#2

e|---------------------------------------------------------------------------| 
B|---------------------------------------------------------------------------| 
G|---------------------------------------------------------------------------| 
D|-----------------2----------------------------------------------------------| 
A|--2-2------2------------------------------------------------------------| 
E|--0-0-3-4---4---4-------------------------------------------------------| x2  


e|---------------------------------------------------------------------------| 
B|---------------------------------------------------------------------------| 
G|---------------------------------------------------------------------------| 
D|--2-2------5---4--------------------------------------------------------| 
A|--0-0-3-4---0-----------------------------------------------------------| 
E|---------------------------------------------------------------------------| x2  


e|---------------------------------------------------------------------------| 
B|--------------------------------2-----------------------------------------| 
G|--------------------------------1------------------------------------------| 
D|--------------------------------2------------------------------------------| 
A|-------2-------0-0-1-1-2-0--2------------------------------------------| 
E|----0-0-4-4--------------------------------------------------------------|



EDIT: mm this shoudve make them look better. wth happened to the code tags?
Last edited by szekelymihai at Nov 15, 2009,