#1
I NEED SOMEONE TO HELP ME OUT!

I'm learning this song at this link:

www.ultimate-guitar.com/tabs/c/cacophony/the_ninja_tab.htm


I can play the intro and the part that starts at 52 seconds but when it gets to the part after 52 seconds which guitar is playing which part?

Like I know theirs 2 guitars playing but which one is the one that is being used in the intro part?

The tab doesn't show guitar 1 or guitar 2, it just shows 4 tabs attached to eachother!

If anyone could explain this too me I would be so happy, I am very new to guitar and I hate abandoning songs because I don't understand them!

Example:

Intro

|---------------------------------------|
|--------------13~---13-13p11--11-13-11-|
|-----------12--------------------------|
|--------14-----------------------------|
|-----15--------------------------------|
|---------------------------------------|

(There is a space inbetween here which I THINK means that it is played by one guitar!

|------------------------------------------------8---------|
|-8-----------------8-11-8------------8-9-10hb------11--8--|
|----10-8--10-8--10---------------10-----------------------|
|----------------------------------------------------------|
|----------------------------------------------------------|
|----------------------------------------------------------|

But then Example 2:

|----------------------16--17\16-|-16-------------------------|
|-16--15-16-18---16-18-----------|----------------------------|
|--------------------------------|----------------------------|
|--------------------------------|----------------------------|
|--------------------------------|----------------------------|
|--------------------------------|----------------------------|
| <-------------------------------------------------------------------- Attachment
|--------------------------------|----------------------------|
|----------------------8---9-8-8-|----------------------------|
|-8---7--8--10---8-10------------|-8---7-8-10---8-7-8p7\5-----|
|--------------------------------|----------------------------|
|--------------------------------|----------------------------|
|--------------------------------|----------------------------|
| <--------------------------------------------------------------------- It goes further more!

Can anyone explain how I am suppose to read this? I tried to show you guys the best example that I can.


Edit: If you need a link to the song, here it is

http://www.youtube.com/watch?v=drVLDnyYJ7c
Last edited by Upbeatjoker at Nov 20, 2009,
#3
Quote by Upbeatjoker
I NEED SOMEONE TO HELP ME OUT!

I'm learning this song at this link:

www.ultimate-guitar.com/tabs/c/cacophony/the_ninja_tab.htm


I can play the intro and the part that starts at 52 seconds but when it gets to the part after 52 seconds which guitar is playing which part?

Like I know theirs 2 guitars playing but which one is the one that is being used in the intro part?

The tab doesn't show guitar 1 or guitar 2, it just shows 4 tabs attached to eachother!

If anyone could explain this too me I would be so happy, I am very new to guitar and I hate abandoning songs because I don't understand them!

Example:

Intro

|---------------------------------------|
|--------------13~---13-13p11--11-13-11-|
|-----------12--------------------------|
|--------14-----------------------------|
|-----15--------------------------------|
|---------------------------------------|

(There is a space inbetween here which I THINK means that it is played by one guitar!

|------------------------------------------------8---------|
|-8-----------------8-11-8------------8-9-10hb------11--8--|
|----10-8--10-8--10---------------10-----------------------|
|----------------------------------------------------------|
|----------------------------------------------------------|
|----------------------------------------------------------|

But then Example 2:

|----------------------16--17\16-|-16-------------------------|
|-16--15-16-18---16-18-----------|----------------------------|
|--------------------------------|----------------------------|
|--------------------------------|----------------------------|
|--------------------------------|----------------------------|
|--------------------------------|----------------------------|
| <-------------------------------------------------------------------- Attachment
|--------------------------------|----------------------------|
|----------------------8---9-8-8-|----------------------------|
|-8---7--8--10---8-10------------|-8---7-8-10---8-7-8p7\5-----|
|--------------------------------|----------------------------|
|--------------------------------|----------------------------|
|--------------------------------|----------------------------|
| <--------------------------------------------------------------------- It goes further more!

Can anyone explain how I am suppose to read this? I tried to show you guys the best example that I can.


Edit: If you need a link to the song, here it is

http://www.youtube.com/watch?v=drVLDnyYJ7c


I love this song. Sorry guys I'm a new user and I just wanted to comment on the song. My friend recently sent it to me and I fell in love with it and I just can't stop listening to it. I love romanian songs...it's probably because my country borders Romania...we're neighbors! lol