#4
Quote by tazomatalax
yea, can someone please make a guitar pro version


2nd this
#5
tuning: FACFGC
standard for the lead guitar

intro and a little bit of the lead :


C|-----------0-------0-------0--------------------------5---------------------------|
G|----------------0--------------------------------4/5-----------5\4----------------|
F|-------4----------------4-----------------------------------0---------0---2/4-----|
C|----------------------------------5--------------------------------------------------|
A|--------------------------------------------0----------------------------------------|
F|---0---------------------------------------------------------------------------------|

C|-----------0-------0-------0--------------------------0---------------0------------|
G|----------------0---------------------------------------------------0---------------|
F|-------4----------------4----------------------------------------6------------------|
C|----------------------------------5---------------4------------------------4-------|
A|--------------------------------------------0----------------------------------------|
F|---0---------------------------------------------------------------------------------|

C|-----------0-------0-------0--------------------------5---------------------------|
G|----------------0--------------------------------4/5-----------5\4----------------|
F|-------4----------------4-----------------------------------0---------0---2/4-----|
C|----------------------------------5--------------------------------------------------|
A|--------------------------------------------0----------------------------------------|
F|---0---------------------------------------------------------------------------------|

C|-----------0-------0-------0--------------------------0-----------------------12+----|
G|----------------0---------------------------------------------------------12+---------|
F|-------4----------------4-------------------------------------------12+---------------|
C|----------------------------------5---------------4-----------12+--------------------|
A|--------------------------------------------0-------------------------------------------|
F|---0------------------------------------------------------------------------------------|

lead guitar:
e|---------------------------------------------3------------------------------|
B|---------------------------------------------------------------------------|
G|---9^---7/9---5-------------7\5-----0-----------------------------------|
D|-----------------------5h7----------------------------------------------------|
A|---------------------------------------------------------------------------|
E|---------------------------------------------------------------------------|

e|--------------------------------10-------------------------------------------|
B|------------------------12^---------10\------------------------------------|
G|----9^---7/9----7----------------------------------------------------------|
D|---------------------------------------------------------------------------|
A|---------------------------------------------------------------------------|
E|---------------------------------------------------------------------------|

and the chords could be:

F:005400
Am:x04400
G7?:xx5600
Last edited by crmrz at Jun 15, 2010,