#1
Its a classical song and i cant remember the name of it. I need to know it for school...

--------------------------------------------------------
--------------------------------------------------------
------------4h5p4-------5----------------------------
---7---7--------------7--------------- 4h6p4------
-------------------------------7---7---------------7---
---------------------------------------------------------
and then it goes into a faster part...

---5--5--5h6p5----------------------------------------------------------
---------------------8---6-----------8---8---8h10p8-------------------
-------------------------------7--------------------------10--9----------
--------------------------------------------------------------------10----
---------------------------------------------------------------------------
----------------------------------------------------------------------------
Free Mumia
#2
Erm, the first bit looks like one of Paganini's Caprices arranged for guitar, but not sure which one off the top of my head.
Quote by ozzyismetal
Neopowell, that's because you are a pumped-up sex offender.
Quote by Kensai
You're exactly the kind of person who'd have sex in a bar drunk
Quote by Zero-Hartman
You're a terrible, terrible man. This is a new middle for you.

I write things. You can read them.Essay on UK student riots
#3
Quote by neopowell
Erm, the first bit looks like one of Paganini's Caprices arranged for guitar, but not sure which one off the top of my head.

Caprice No.24
#7
Punani's Caprice No. 24, Capish?
Quote by JDawg
If by gf you mean the 1tb drive of a porn i have on my computer, and by job you mean the admin time I spend on WoW, and by friends you mean the thousands of people on my myspace profile, and by life you mean im alive...
Then yes, I have all four.
#8
Quote by ordinary_story
Punani's Caprice No. 24, Capish?


Nice.
Quote by ozzyismetal
Neopowell, that's because you are a pumped-up sex offender.
Quote by Kensai
You're exactly the kind of person who'd have sex in a bar drunk
Quote by Zero-Hartman
You're a terrible, terrible man. This is a new middle for you.

I write things. You can read them.Essay on UK student riots