#1
This is at a tempo of 180


     PM PM PM                                   
     |--3--|   |---3--|   |---3--|   |---3--|   
     E  E  E   E  E   E   E   E  E   E   E  E   
E||--------------------------------------------|
B||--------------------------------------------|
G||--------------------------------------------|
D||----------------------12--10--9-------------|
A||-----------10--9--10-------------12--10--9--|
E||--0--0--0-----------------------------------|


   PM  PM PM        PM       PM       
   |---3--|   |--3--|  |--3--|        
   E   E  E   E  E  E  E  E  E  Q     
-------------------------------------|
-------------------------------------|
-------------------------------------|
-------------------------------------|
-------------10--9-----9--7-----6----|
--12--10--8---------7--------7-------| 


All the notes on the E string (and only the notes on the E string) are palm muted. Should I should keep the string palm muted the whole time while I play this riff? I rest my hand on the bridge and I can do that, but is it a good way, or no?
#3
Quote by tenfold
You should take your palm off the strings after you don't need to palm mute anymore.

So, even though I rest my hand on the bridge I should move it off the strings after each palm muted note?
#4
Yes. Bring it away from the strings though, don't bring your hand upwards, bring it outwards from the bridge just enough to get the other notes clear.
Here's an example you can use to practice this feeling:
      PM PM    PM    PM    PM                
E||----------------------------||-----||
B||----------------------------||-----||
G||*--------------------------*||-----||
D||*--------------------------*||-----||
A||----------------------------||-----||
E||---2--2--4--2--5--2--4--2---||-----||

Basically, all the 2's are palm muted, but you let up in between to have the other notes ring out.
#5
Its like raining blood by slayer. or any metal song like that. It just takes some getting used to and practice.
I am the only sane person on the planet. Does that make me crazy?

Crank the Mids