#2
Bit of a lazy tab, but I'm sure you can figure out where to use each of the riffs. There may be every-so-slight variations with each repetition of the riffs by Clapton, but that's what you get with live performance:

------------------------------------------------------------------
	   Sunshine of Your Love (Acoustic) - Eric Clapton
------------------------------------------------------------------
Tabbed by: kenan6346
Email: kento@live.com.au
Tuning: Standard

Riff A:
e|---------------------------------------------------------------|
B|---/10-10-8--10------------------------------------------------|
G|---/11-11-9--11------------------------------------------------|
D|---/12-12-10-12------------------------------------------------|
A|------------------10/12--11--10--------8~----------------------|
E|------------------(0)------------8/10------10------------------|

Riff B:
e|---------------------------------------------------------------|
B|----10-10-8--10------------------12----------------------------|
G|----11-11-9--11------------------12---10~----------------------|
D|----12-12-10-12------------------12-------12-------------------|
A|------------------10/12--11--10--------------------------------|
E|---------------------------------------------------------------|

Riff C:
e|---------------------------------------------------------------|
B|---------------------------------------------------------------|
G|----4-4-2-4----------------------------------------------------|
D|----5-5-3-5----0-----------------------------------------------|
A|------------------4--3----1------------------------------------|
E|------------------------3----3---------------------------------|

Riff D:
e|----0--0-0-----------------------------------------------------|
B|----2--2-2-----5----3------------------------------------------|
G|----2--2-2-----5----4------------------------------------------|
D|----2--2-2-----5----5------------------------------------------|
A|----0--0-0-----3----x------------------------------------------|
E|--------------------3------------------------------------------|

Riff E:
e|---0---0---0---0-----------------------------------------------|
B|---2---2---2---2----X2-----------------------------------------|
G|---2---2---2---2-----------------------------------------------|
D|---2---2---2---2-----------------------------------------------|
A|---0---0---0---0-----------------------------------------------|
E|---------------------------------------------------------------|

Riff F:
e|---------------------------------------------------------------|
B|---/10-10-8--10------------------------------------------------|
G|---/11-11-9--11------------------------------------------------|
D|---/12-12-10-12----------------------10------------------------|
A|------------------10/12--11--10-------8------------------------|
E|---------------------------------10----------------------------|

Riff G:
e|---------------------------------------------------------------|
B|---3-----3-------3-------3-------------(3)---------------------|
G|---2-----------0-------0-------0-------(2)---------------------|
D|---0---------0-------0-------0------0--------------------------|
A|---0-------3-------2-------1-----0-----------------------------|
E|---------------------------------------------------------------|


| /  slide up
| \  slide down
| h  hammer-on
| p  pull-off
| ~  vibrato
| +  harmonic
| x  mute note
| () ghost note
=================================================================