#1
|---3--| |---3---|
H Q E E E E E H E E E
E||---------------------------|-----------------------------|
B||----------------12--12--9--|--12--9--L--------9--10--12--|
G||---------------------------|-----------------------------|
D||---------------------------|-----------------------------|
A||---------------------------|-----------------------------|
E||---------------------------|-----------------------------|


|---3--| |---3--|
H. E E E E E H E E E
-----------------9--9------|--9--------------------9--11b--|
--12b------------------10--|-----10---L--------10----------|
---------------------------|-------------------------------|
---------------------------|-------------------------------|
---------------------------|-------------------------------|
---------------------------|-------------------------------|


Q Q H
---L----9--------------||
-------------12--------||
-----------------------||
-----------------------||
-----------------------||
-----------------------||


Any know the name of this riff?
#4
That isn't a riff
Quote by Pookie6
Yngwi3, You win this whole monstrosity of a thread.

Quote by uk.mace
For the best tingle, use Original Source mint. That shit feels amazing on your balls.


Godfather of The Diezel Mafia
#5
E-0--3--5---0--3--5--6....

^GaijinFoot is correct i believe
Ibanez sz720fm,Ibbly RG350DX, Custom Tele-> Dunlop 535Q->RAT Pro co II-> Ibanez Fuzz->Marshall Haze 40.
Tascam US-800 and a hand full of Mics into Nedundo 4

my music, new recording on the way in 2014

[B]insert witty italicized quote here
#9
C ||------------------------------||
G ||------------------------------||
D#||------------------------------||
A#||------------------------------||
F ||------------------------------||
A#||--0-0-0--0-0-0--0-0-0--0-0-0--||

x1000
#10
Quote by ph213x

H Q E E E E E H E E E


H. E E E E E H E E E

Q Q H



Any know the name of this riff?

Sounds kind of like this:

"Huh-Kweeeee!! Huh... eeeEEEH! EEE!!" *spits*

I'm guessing Yoko Ono
#11
Quote by In The Mist
C ||------------------------------||
G ||------------------------------||
D#||------------------------------||
A#||------------------------------||
F ||------------------------------||
A#||--0-0-0--0-0-0--0-0-0--0-0-0--||

x1000



Isak?
#12
Quote by In The Mist
C ||------------------------------||
G ||------------------------------||
D#||------------------------------||
A#||------------------------------||
F ||------------------------------||
A#||--0-0-0--0-0-0--0-0-0--0-0-0--||

x1000

It's gotta be slayer then.
Signature Signature Signature Signature Signature Erutangis Erutangis Erutangis Erutangis Erutangis Erutangis Signature Signature Signature Signature Signature Signature Erutangis Erutangis Erutangis Erutangis Erutangis