#1
Here is my interpretation of it

Tuning: Drop B
Song: War Is The Answer
Artist: Five Finger Death Punch
Album: War Is The Answer
______________________________________________________________________________________________________________________________________
This is the song up until the solo
This is my first Tab submission also, so sorry for any mistakes
I listened to the song and came up with this:
USE PALM MUTES WHERE NECESSARY
WHEN I COPIED IT IN, IT MESSED UP SORRY!
______________________________________________________________________________________________________________________________________
INTRO / MOST OF THE SONG

e|------------------------------------------------------------------------------------------|
B|------------------------------------------------------------------------------------------|
G|------------------------------------------------------------------------------------------|
D|--2--2-2--2--2-2--2-----------------------2--2-2--2--2-2--2---0--7-7--0--3-3--|
A|--2--2-2--2--2-2--2-----------------------2--2-2--2--2-2--2---0--7-7--0--3-3--|
E|--2--2-2--2--2-2--2---8-7-5-7-5-3-5---2--2-2--2--2-2--2---0--7-7--0--3-3--|


VERSE / PART AFTER INTRO

e|----------------------------------------------------------------------------------|
B|----------------------------------------------------------------------------------|
G|----------------------------------------------------------------------------------|
D|----------------------------------------------------------------------------------| X4
A|--------5---6---3---5-------5---6---3---5------5---6---3---5---------------|
E|--0-0---0---0---0-----0-0---0---0---0----0-0---0---0---0-----------------|

Im not good enough to be tabbing out solo's just yet
Constructive feedback would be appreciated.
Dan.