#3
this is only half the song

standard 1/2 step down

(in the verse, he apparently mutes the strings with his index)


intro and 1rst parte of verse:
e|---------------------------------------------------------------------------|
B|---------------------------------------------------------------------------|
G|-----4---4-4---4----4--4----4-----4-4---4----4----------------------|
D|-----x---x-x----x----x--x----x-----x-x----x----x----------------------|
A|-----x---x-x----2----4--4----x----x-x-----x----4---------------------|
E|-----4--4-4-------------------4----4-4-----0--------------------------|

e|---------------------------------------------------------------------------------------|
B|--5----5-5-----4----4-4----------0----------0--------------5------------7\----------|
G|--x----x-x------x----x-x------------------------------------------------------------|
D|--x----x-x------x----x-x-------6----6-----6----6------6-----6-----8------------|
A|--4----4-4-----x-----x-x----4----------7------------7------------9----------------|
E|-----------------4----4-4------------------------------------------------------------|

Chorus:

e|---------------------------------------------------------------------------|
B|---------------------------------------------------------------------------|
G|--4-4/8-8-8-8-8---4-4-4/8-8-88--6-6------------------------------|
D|---------------------------------------------------------------------------|
A|--2-2/6-6-6-6-6---2-2-2/6-6-66--4-4-------------------------------|
E|---------------------------------------------------------------------------|

e|-----------------------------------------------------------|
B|-----------------------------------------------------------|
G|-------8-8-8-8-8-------8-8-88--6-6------------------|
D|----------------------------------------------------------|
A|-------6-6-6-6-6-------6-6-66--4-4------------------|
E|--00---------------000----------------------------------|

e|---------------------------------------------------------------------------|
B|---------------------------------------------------------------------------|
G|--4-4/8-8-8-8-8---4-4-4/8-8-88--6-6------------------------------|
D|---------------------------------------------------------------------------|
A|--2-2/6-6-6-6-6---2-2-2/6-6-66--4-4-------------------------------|
E|---------------------------------------------------------------------------|

e|-----------------------------------------------------------|
B|-----------------------------------------------------------|
G|-------8-8-8-8-8-------8-8-8-6-4-4------------------|
D|----------------------------------------------------------|
A|-------6-6-6-6-6-------6-6-6-4-2-2------------------|
E|--00---------------000----------------------------------|

repeat chorus, but the ending is different like this:

e|-----------------------------------------------------------|
B|-----------------------------------------------------------|
G|-------8-8-8-8-8-------9-9-11-11/13\11-11-------|
D|----------------------------------------------------------|
A|-------6-6-6-6-6-------7-7-9---9 /11\9 --9---------|
E|--00---------------00----------------------------------|
Last edited by crmrz at Feb 4, 2010,