#1
http://www.youtube.com/watch?v=--_hzFVnAgs
started figuring it out but I can't get some of the intro down. missing some undertones and the lead on the second riff. plus the remainder of the song, but I'm working on that. any help on what I have done, plus the rest would be great. thanks much
Sculptured - Embodiment

Tuning 1/2 Step down

1)
|--------------------------|
|--------------------------|
|--------------------------|
|-2--2--5---4--4--5--2--2--|
|-2--2--5---4--4--5--2--2--|
|-0--0--3---2--2--3--0--0--|

1a)
|----------------------------------------|
|----------------------------------------|
|-7/9-7-h-9-p-7---9/12---12/14--14/16-\7-|
|---------------9------9-----------------|
|----------------------------------------|
|----------------------------------------|

|--------------------------------------------------------|
|--------------------------------------------------------|
|-7/9-7-h-9-p-7---9/12-9h12p9-----9/12---12/14--14/19-\7-|
|---------------9--------------9-------9-----------------|
|--------------------------------------------------------|
|--------------------------------------------------------|

|-----------------------------------------------|
|-----------------------------------------------|
|-7/9-7-h-9-p-7---7/9-7-h-9-p-7---7/9-9---7/9---|
|---------------9---------------9-------9-----9-|
|-----------------------------------------------|
|-----------------------------------------------|

2)
|----------------------------------------------------|
|----------------------------------------------------|
|----------------------------------------------------|
|-12\--------------5\4-------------------------------|
|-12\----6-x-6h7-7-----6-6/7-7------7-9/10-7-5-7/9\7-|
|-10\---0-------------------------3------------------|

|--------------------------------------|
|--------------------------------------|
|--------------------------------------|
|--------------------------------------|
|---7-9/10-10/12-10\9-7/9-5----6-6/7-7-|
|-2--------------------------0---------|

2a)