#1
Hey guys, I've seen two different versions of the intro to Call of Ktulu. I'm wondering which is really correct and I'm having difficulty figuring it out from the song. This first one is from the only 5-star text tab on UG:

|---5---------5---|---5---------5---|---6---------6---|---6---------6----|
|-------6-------6-|-------6-------6-|-------6-------6-|-------6-------6--|
|-----7-----7-----|-----7-----7-----|-----7-----7-----|-----7-----7------|
|-0-------7-------|-0-------7-------|-0-------8-------|-0-------8--------|
|-----------------|-----------------|-----------------|------------------|
|-----------------|-----------------|-----------------|------------------|


|---8----------8---|---8----------8---||
|-------8--------8-|-------8--------8-||
|-----9------9-----|-----9------9-----||
|-0-------10-------|-0-------10-------||
|------------------|------------------||
|------------------|------------------||


And this version is from a 5-star guitar pro file and a 5-star rated YouTube video lesson (if that is of any value...)

||----5---------5---|---5---------5---|---6---------6---|---6---------6---|
||--------6---5---6-|-------6---5---6-|-------6-------6-|-------6-------6-|
||*-----7-----------|-----7-----------|-----7-----9-----|-----7-----9-----|
||*-0-------7-------|-0-------7-------|-0-------8-------|-0-------8-------|
||------------------|-----------------|-----------------|-----------------|
||------------------|-----------------|-----------------|-----------------|

							 __________________
							|1.		   |
							      end Rhy Fig 1
|---8----------8---|---8----------8---|---5---------5---|---5---------5----||
|-------8--------8-|-------8--------8-|-------6---5---6-|-------6---5---6--||
|-----9------9-----|-----9------9-----|-----7-----------|-----7-----------*||
|-0-------10-------|-0-------10-------|-0-------7-------|-0-------7-------*||
|------------------|------------------|-----------------|------------------||
|------------------|------------------|-----------------|------------------||



In case you didn't catch it, the difference is in the 6th note of each measure. The two tabs are a tone apart.

Thanks in advance.
#2
Who cares, both in same key, both sound like the intro and probably no one can tell the difference.

Use the one that sounds best to you.
#5
Thanks guys!

I think I will be practicing the Guitar Pro version (7 5 5 6 instead of 7 7 5 6).
#6
I kinda disagree. I've been plaing that for 25 years and I've always played it the first way. As soon as I tried the GP version it sounded off. Granted I've never had a Cherry Lane tab book or anything on it but it seems logical also that if he's picking the G string on the A# and the C that he'd be doing the same on the Dm. The differences are almost imperceptible though. I find the first easier and more natural to play also.