#1
E |-----------------------------------------------------------------|
B |-----------------------------------------------------------------|
G |-----------------------------------------------------------------|
D |-5-------5-------3-------3---------------------------------------|
A |-3---3-3-3---3-3-1---1-1-1---1-1-6-------6-------6-------6-------|
E |---------------------------------4---4-4-4---4-4-4---4-4-4---4-4-|
|--------------------------------------------------------------|
PM

E |--------|*this is played instead
B |--------| of the last three notes
G |--------| of the bar above in the
D |---3----| 2nd + 3rd + 4th verse
A |-6-1----|
E |-4------|

E |---------------------------------------------------------|
B |---------------------------------------------------------|
G |---------------------------------------------------------|
D |-5-------5-------5-------5-------5-------5-------5*------|
A |-3---3-3-3---3-3-3---3-3-3---3-3-3---3-3-3---3-3-3----6\-|
E |------------------------------------------------------4\-|
|----------------------------------------------|
PM

E |-----------------------------------------------------------|
B |-----------------------------------------------------------|
G |-----------------------------------------------------------|
D |-5-------5-------3-------3-------5-------5-------5-------5-|
A |-3---3-3-3---3-3-1---1-1-1---1-1-3---3-3-3---3-3-3---3-3-3-|
E |-----------------------------------------------------------|
|--------------------------------------------------------|
PM

*This bar is only played in the third verse
right before the solo instead of the one above

E |------------------------------------------|
B |------------------------------------------|
G |------------------------------------------|
D |---5-------5-------3-------3-------6------|
A |---3---3-3-3---3-3-1---1-1-1---1-1-6------|
E |-----------------------------------4------|
|-------------------------------|
PM
1st PRE-CHORUS:


...gotta get awaaaaaay...
E |------------------4-----------------|
B |------------------------------------|
G |-----------------------5------------|
D |-6----------------------------------|
A |-6----------------------------------|
E |-4----------------------------------|
let ring

1st CHORUS

E |---------------------------------|------------------------------|
B |---------------------------------|------------------------------|
G |---------------------------------|------------------------------|
D |-----5-------5-------5-7-8-------|-5-------5-------8----3-------|
A |-----3---3-3-3---3-3-3-5-6-------|-3---3-3-3---3-3-6----1-------|
E |---------------------------------|------------------------------|
|--| |--| |--| |--|
PM PM PM PM

E |---------------------------|-----------|
B |---------------------------|-----------|
G |---------------------------|-----------|
D |5-------5-------8-----3----|-5---3--5--|
A |3---3-3-3---3-3-6-----1----|-3---1--3--|
E |---------------------------|-----------|
|--| |--|
PM PM

go back to verses then to 2nd prchorus

2nd PRE-CHORUS:

E |-----------------4------4------------