#2
e-18p15---------------15
B---------15---------15-
G------------15---15----
D---------------15-------
Sweep thing...
Quote by theogonia777
and then there's free jazz, which isn't even for musicians.

Quote by Born A Fool
As my old guitar teacher once said: Metal really comes from classical music. The only difference is pinch harmonics, double bass, and lyrics about killing goats.
#3
e-------------------------------------------------------------------9---
B--9h11-9h11-9h11--11b pick whilst bending --------10--10
G--------------------------------------------------------10 10---------


Yeah that pretty much messed up when i posted it..


HELLO!

#4
below is one i make variants of all the time when i'm messing around with my wah pedal.

--------------------------------------------------------------------------------------------------------------
--------------------------------------------------------------------------------------------------------------
-----------------12-14-14b14-12----------------------------------------------------------12-14b-12~
---------12-14----------------------14~--14-13-12------------------------12~-12-14---------------
-12-14--------------------------------------------------14-13-12-0-12h14----------------------------
--------------------------------------------------------------------------------------------------------------
i used to be a mod, then i took an arrow in the knee.
#6

e|-l-----t----c---------|
B|--e-----o----o---t----|
G|---a----------d---a---|
D|----r----u-----e---g--|
A|-----n----s---------s-|
E|-----------e----------|
#7
i thought the code was [tab][/tab] so when that didn't work i just gave up
i used to be a mod, then i took an arrow in the knee.