#1
i made this riff the other day (first one i ever wrote down), and i think it could be a cool bridge riff.

--------------------------------------------------
--------------------------------------------------
-------4------2------0-------------------------------
----2-------0-----0----------------------------------
--------------------------------------------------
-3--------2-----0------------------------------------

i'm not experienced with song riffs and i know that there should be something that loops this bridge at the end or something but i don't know what. i tried this, and it sounds kinda cool but it doesnt really fit at the end of the bridge

----------------------------------------
----------------------------------------
--0-2-4-2-0-2---------------------------------
-------2----- -0---------------------------
----------------------------------------
----------------------------------------

any advice on how to start an intro and verse, and on how to connect notes together would help a lot