#1
Look at it, play it, and guess it. Simple enough. After you've guessed correctly on what the above tab is, post your own, and try to keep it short if you can

I'll start:
|---------------------------------|----------------------------------|
|---------------------------------|----------------------------------|
|---------------------------------|----------------------------------|
|-----2-----2---------------------|-----2-----2----------------------|
|---2---2-3---3-2-2-----2---------|---2---2-3---3-2-2-----2-4-3-2----|
|-0---------------0-0-0-0-0-0-0-0-|-0---------------0-0-0-0-5-4-3----|
The playground of the world
Last edited by Eddie4President at Dec 23, 2009,
#3
If we are going to do this, make sure you put the TAB in code.

|---------------------------------|----------------------------------|
|---------------------------------|----------------------------------|
|---------------------------------|----------------------------------|
|-----2-----2---------------------|-----2-----2----------------------|
|---2---2-3---3-2-2-----2---------|---2---2-3---3-2-2-----2-4-3-2----|
|-0---------------0-0-0-0-0-0-0-0-|-0---------------0-0-0-0-5-4-3----|
Quote by MakinLattes
dwelling on past mishaps is for the weak. you must stride into the future, unabashed and prepared to fuck up yet again.
#4
Quote by KirkMetallica
lolwat.


Dont think thats right.
Quote by Holy Katana
Your last job only paid you $7.00 AUD an hour? That's like $6.05 in the US. What the hell is the minimum wage over there?


Quote by titsmcgee852
$0 for volunteer work

ollollolollol


^
#7
Freebird!!!!!
Chinese Democracy is a great album, people need to get over Slash.

Proud fan of Pop, Rap, Rock, and Metal.
#10
C#|-----------------------------------------------------|
G#|-----------------------------------------------------|
E |-----------------------------------------------------|
B |-----------------------------------------------------|
F#|-----8"-7"-10"-8"----7"-8"----5"-4"-7"-5"----8"-7"---|
B |--0"--------------7"-------5"-------------5"---------|
Last edited by TheReverend724 at Dec 23, 2009,
#12
something fast, metalish, if the " are tremolo picking.


████████████
████████████








RBY CYOA
#13
Quote by TheReverend724
C#|-----------------------------------------------------|
G#|-----------------------------------------------------|
E |-----------------------------------------------------|
B |-----------------------------------------------------|
F#|-----8"-7"-10"-8"----7"-8"----5"-4"-7"-5"----8"-7"---|
B |--0"--------------7"-------5"-------------5"---------|


Every metalcore riff ever
#14
smoke on the water
Quote by RazorTheAwesome
* at TunaFish

OH DAMN YOU!!!




Quote by SteveHouse
TunaFish ==

This made me lol:
Quote by cakeandpiemofo
It's morphing time bitches.
#15
this thread requires time and effort that i quite frankly do not have
Quote by asator
YOU'RE A CUNT AND STUFF LESPAUL1216.


It's okay because whatever, forever
#16
Quote by lespaul1216
this thread requires time and effort that i quite frankly do not have

+1
#19
Quote by Zoot Allures
-0-0-0-0-0-0-0-0-0-0-0-0-

Masturbation?
Quote by Ur all $h1t
On public transport I furiously masturbate while trying to make eye contact with as many people as possible for as long as possible.
#20

E--0--------------------------0------------------0-------------------------------
A----7--------------------------7------------------7-----------------------------
D------9-----9-------------------9------9-----------9----9-------7---5---4----
G------------------------------------12----11----------9----7------6---4---2--
B---------12----11---------------------------------------------------------------
e-----------------------------------------------------------------------------------
~don't finkdinkle when ur supposed to be dimpdickin~