#1
How to Do It

Post an into/solo to a song, using tabs (Must be a very well known song) and see if others can guess what song it is, make sure it is not too long.

Players and bring out their guitars and play the intro/solo or they could play it in their head and see if they know what the song is.

Good luck!

I'll go first. lol
E----------------------------------------------------------
B----------------------------------------------------------
G------3------5-------------3-----6-----5----------3---5
D--5--3------5--------5----3-----6-----5----5----3---5
A--5-------------------5------------------------5---------
E----------------------------------------------------------

(I'm sorry im a noob, lets just pretend those single notes are actually played together) And lol if you don't get it =]
.................. ....
Smells like fish
#2
Smoke on the water (badly)


|------------|      
|------------|
|-3--2--5--7-|
|-0--3--5--7-| x2 (78 on last)
|------------|
|------------|
Last edited by Stormx at Dec 27, 2009,
#3
Quote by Stormx
Smoke on the water (badly)


|------------|
|------------|
|-3--2--5--7-|
|-0--3--5--7-| x2 (78 on last)
|------------|
|------------|



Thanks, yeah i C&P'd it from a 4star tab here.
.................. ....
Smells like fish
#4
---------------------------------------------------------
-----------------2h3p2-------5------5--2------------
--------------2----------2-----4------4--2------------
---------------------------------------------------------
---------0----------------------------------------------
---0h2-------------------------4------4--2-----------
#5
Quote by Rutch
---------------------------------------------------------
-----------------2h3p2-------5------5--2------------
--------------2----------2-----4------4--2------------
---------------------------------------------------------
---------0----------------------------------------------
---0h2-------------------------4------4--2-----------


You didn't say what the previous song was...
#6
Tool - Schism?


|-----------------------|
|-----------------------|
|-6-6/8-8--8-9--9/11-11-|
|-x-x/x-x--x-x--x/x--x--|
|-4-4/6-6--6-7--7/9--9--|
|-----------------------|
#7
Quote by Stormx
You didn't say what the previous song was...


Cuz I haven't got a clue.
(Uh, if it was made after the '70s, I've got nothing...)
#8
not sure but...

E----------------------------------------------------------
B----------------------------------------------------------
G----------------------------------------------------------
D----------------------------------------------------------
A---2--2--2/4-5--5--5\4-4\2--2--2--2/4-5----------
E----------------------------------------------------------
Quote by tancanada
He's from Arkansas. Of course he wants to eat it.


Quote by thsrayas
Why did women get multiple orgasms instead of men? I want a river of semen flowing out of my room to mark my territory.


Quote by ikitson
im drunk idc



( . Y . )
#9
Quote by Rutch
Cuz I haven't got a clue.
(Uh, if it was made after the '70s, I've got nothing...)


Then don't post.

This is only going to work if we try to guess the tab of the last person who got the correct answer.

That means you can only post a new tab if you can figure out what guitarhero_764 posted, as he got the correct answer of Tool - Schism
Last edited by Stormx at Dec 27, 2009,