#1
Hey guys!
I've got this song stock in my fingers. But I cannot figure out what song it is.
Please try playing it and tell me if you recognize it


e|-----------------------------------------------------------------|
B|-----------------------------------------------------------------|
G|------7-----7------7-----------------5-------5-------5-------|
D|----5--5------4/5---5------------3----3-------2/3----3-----|
A|--7----------------------7------5--------------------------5---|
E|----------7---------------------------------5-------------------|
#2
Quote by Tocker
Hey guys!
I've got this song stock in my fingers. But I cannot figure out what song it is.
Please try playing it and tell me if you recognize it


e|-----------------------------------------------------------------|
B|-----------------------------------------------------------------|
G|------7-----7------7-----------------5-------5-------5-------|
D|----5--5------4/5---5------------3----3-------2/3----3-----|
A|--7----------------------7------5--------------------------5---|
E|----------7---------------------------------5-------------------|

how fast is it played? im going to assume its clean rather than distorted.
Quote by MetalMilitia212
Right, and instead of playing Tekken, go out and join a martial arts tournament! While your at it, put down that NES controller and go jump on some real turtles, pussy..
#3
Yeah it's just regular tempo, and clean guitar.

The first part 7-5-7-5-7 are slow, then the next a bit faster, and the same with the 5-3-5-3-5 part
Last edited by Tocker at Jan 4, 2010,