#1
I'm looking for a tab for "She just Satisfies" It's by Jimmy Page, and he SINGS on it!

This is it:

http://www.youtube.com/watch?v=S1qsI8Di8io


If anyone has the tab, please tell me, thanks!
Gear:

Vintage VS6 (Wine Red)

Marshall VS100 Valvestate head with 4x12 angled cab

Squier Strat (Fiesta Red) 90's, Korean
#2
Here are the chords, don't know if it's right but it sound right

Main Verse: F G G F G

On 'soooo gooood' (I think its 'so good') it goes onto F

Bridge: F Bb Bb C Bb G A then I'm not sure but I think it's goes D D C Bb G

This is what I got so far, not much but I hope it helps a little.

Edit: I'm working on the harmonica part now, will be finished soon

btw this song is kick ass. thx for sharing

Edit 2: I think I got it down, more or less.
It's possible that this is completly wrong but let's try it. I'll give it a decent look tomorrow

It's kinda hard to write down.

I'm going to sleep now cause here in Austria it's 2:35am



e--3-3/6-8-8b-8b-8b-6-8h9bp8h9bp8h9bp8h9b-8h9-6---------------------|
B-----------------------------------------------6h7bp6h7bp6h7bp6h7b-|
G-------------------------------------------------------------------|
D-------------------------------------------------------------------|
A-------------------------------------------------------------------|
E-------------------------------------------------------------------|



e--3-6-8br8br/10-15--13-12-/10-9br9br-8/9-6-------------------|
B----------------15-------------------------7br7br7br7brp6-6b-|
G-------------------------------------------------------------|
D-------------------------------------------------------------|
A-------------------------------------------------------------|
E-------------------------------------------------------------|
Control your destiny.
Last edited by habits at Jan 7, 2010,