#1
Hi, I really need help on speed and fret hand/picking hand synchronization.

also need help with rhythm in metal songs.

Im specifically trying to improve my technique for a Zelda Metal cover im doing.

I really need help with these at 108 bpm

---12--10--8--------10--8--7---------8--7--5-----
----------------12----------------10---------------8-
--------------------------------------------------------
--------------------------------------------------------
--------------------------------------------------------
--------------------------------------------------------


and

-----12--8------------------------------------------
--------------10-------------------------------------
-------------------9----------------------------------
----------------------10-----------------------------
---------------------------12--11-------------------
------------------------------------------------------



heres the mp3 I made, its far from perfect and im not even done with the cover yet please critique i am so frustrated with my speed and accuracy and my rhythm.

i also realize there are many other mistakes in this mp3 as i said its a work in progress, but the main part where i need help are those tabs

http://profile.ultimate-guitar.com/Heathbb/music/all/play768393
Last edited by Heathbb at Jan 10, 2010,
#3
Slow it down and gradually speed it up as you get better at it. Use a metronome. And definitely check out John Petrucci's Rock Discipline (in tenfold's signature)
Quote by Geldin
Junior's usually at least a little terse, but he knows his stuff. I've always read his posts in a grouchy grandfather voice, a grouchy grandfather with a huge stiffy for alternate picking.
Besides that, he's right this time. As usual.
#4
Quote by tenfold
(check out the sig).

awesome documenteries in your definitely going to check them out