shadowmaster036
NEMO
Join date: May 2009
348 IQ
#1
Just wrote this about 20 minutes ago... Lemme know what you think.

Tempo - 170

    ssss  e   ssss e  ssss e  ssss  e  ssss  e ssss  e  sss   e   q               q+
e|-------------------------------------------------------------------|--------------|----------|
B|-------------------------------------------------------------------|--------------|----------|
G|-------------------------------------------------------------------|--------------|----------|2x
D|-------------------------------------------------------------------|----5/-------|----------|
A|---------7--------9--------7---------9--------7---------9------|-5--3/-------|--12/----|
D|-0000-7-0000-9-0000-7-0000-9-0000-7-0000-9-000-|-5-----------|--12/----|
     . . . .      . . . .     . . . .     . . . .      . . . .     . . . .      . . .         End 1      End 2


     sss sss  sss  sss  sse  e e e e e e  e e sss  sss  sss  sss  ss e e e e q+
e|----------------------------------------------------------------------------------------------------|
B|----------------------------------------------------------------------------------------------------|
G|--------------------------------------------------------------------------------------3b(3.5)-----|
D|------------------------------------------------------------------------------------2--------------|
A|-----------------------------------3-2-3-5-2--------------------------------3-5-----------------|
D|-000-000-000-000-002-3-5-------------0-000-000-000-000-002----------------------|
     . . .  . . .  . . .  . . .   . .                             . . .  . . .   . . .  . . .  . .              P.H.


That's all I got so far... :P
Ometh
UG Addict
Join date: Oct 2009
3,911 IQ
#2
Lol wth man, are we supposed to tune our guitar to D and then make up a tempo and play it? Try to transpose it to Guitar Pro, it makes everything easier. If you don't know what that is, here you go. . And if you don't want to buy it, *cof*torrent*cof*. I recommend GP5 though, because GP6 is the newest one and UG doesn't support GPX yet, and almost everyone still uses it.
Quote by slapsymcdougal
I'm cockblocked regularly by my appearance and personality.